Song name
# A B C D E F G H I J K L M N O P Q R S T U V W X Y Z

Schweisser - Willkommen Im Club tab

----------------------------------------------------------------------------
			     Willkommen im Club - SCHWEISSER
----------------------------------------------------------------------------

Transcribed By: Jens Binder
Email:          jens-binder@gmx.de


Dropped D-tuning
Listen to the song to find accurate timing 
(youtube)

E||-----------------------|--------------------------------------|
B||-----------------------|--------------------------------------|
G||----repeat 6x----------|--------------------------------------|
D||-----------------------|------------6-----------6-------------|
A||--6--5--5--3--5--6--5--|--5--3--5---6--0--0--0--6--0--0--0--0-|
D||-----------------------|------------6--0--0--0--6--0--0--0--0-|

E||----------------------------|----|
B||----repeat serveral times---|----|
G||----------------------------|----|
D||-6-----------6--------------|--0-|
A||-6--0--0--0--6--0--0--0--0--|--0-|
D||-6--0--0--0--6--0--0--0--0--|--0-|


1. STROPHE

E||---------------------------------------------------------------|
B||---------------------------------------------------------------|
G||---------------------------------------------------------------|
D||--6-----------6-----------6---6-----------6-----------6--------|
A||--6--0--0--0--6--0--0--0--6---6--0--0--0--6--0--0--0--6--------|
D||--6--0--0--0--6--0--0--0--6---6--0--0--0--6--0--0--0--6--------|

E||---------------------------------------------------------------|
B||---------------------------------------------------------------|
G||---------------------------------------------------------------|
D||--6-----------6-----------6---6-----------6-----------6--0-----|
A||--6--0--0--0--6--0--0--0--6---6--0--0--0--6--0--0--0--6--0-----|
D||--6--0--0--0--6--0--0--0--6---6--0--0--0--6--0--0--0--6--0-----|


BRIDGE

E||---------------------------------------------------|
B||---------------------------------------------------|
G||---------------------------------------------------|
D||---------------------------------------------------|
A||--------12--13--12--------10--12--10--------8--10--|
D||--0--0--12--13--12--0--0--10--12--10--0--0--8--10--|

E||---------------------------------------------|
B||---------------------------------------------|
G||---------------------------------------------|
D||---------------------------------------------|
A||--------12--13--12--------10--12--10--8--10--|
D||--0--0--12--13--12--0--0--10--12--10--8--10--|

E||---------------------------------------------------|
B||---------------------------------------------------|
G||---------------------------------------------------|
D||---------------------------------------------------|
A||--------12--13--12--------10--12--10--------8--10--|
D||--0--0--12--13--12--0--0--10--12--10--0--0--8--10--|
        
E||----------------------------------------------|
B||----------------------------------------------|
G||----------------------------------------------|
D||----------------------------------------------|
A||--------12--13--12----------------------------|
D||--0--0--12--13--12--0--0--2--0--3--5--0--3--2-|

        
2. STROPHE

E||------------------------------------------------------------|
B||------------------------------------------------------------|
G||------------------------------------------------------------|
D||--6-----------6-----------6---6-----------6-----------6-----|
A||--6--0--0--0--6--0--0--0--6---6--0--0--0--6--0--0--0--6-----|
D||--6--0--0--0--6--0--0--0--6---6--0--0--0--6--0--0--0--6-----|

E||------------------------------------------------------------|
B||------------------------------------------------------------|
G||------------------------------------------------------------|
D||--6-----------6-----------6---6-----------6-----------6--0--|
A||--6--0--0--0--6--0--0--0--6---6--0--0--0--6--0--0--0--6--0--|
D||--6--0--0--0--6--0--0--0--6---6--0--0--0--6--0--0--0--6--0--|

REFRAIN

E||---------------------------|------------------------|
B||---------------------------|------------------------|
G||---------------------------|------------------------|
D||--8----------3-------0-----|-8----------3-----0-----|
A||--8----------3-------0-----|-8----------3-----0-----|
D||--8----------3-------0-----|-8----------3-----0-----|
     


E||---------------------------|----------------------|
B||---------------------------|----------------------|
G||---------------------------|----------------------|
D||--8----------3-------0-----|----8----10-------7---|
A||--8----------3-------0-----|----8----10-------7---|
D||--8----------3-------0-----|----8----10-------7---|
    
BRIDGE

E||---------------------------------------------------|
B||---------------------------------------------------|
G||---------------------------------------------------|
D||---------------------------------------------------|
A||--------12--13--12--------10--12--10--------8--10--|
D||--0--0--12--13--12--0--0--10--12--10--0--0--8--10--|

E||---------------------------------------------|
B||---------------------------------------------|
G||---------------------------------------------|
D||---------------------------------------------|
A||--------12--13--12--------10--12--10--8--10--|
D||--0--0--12--13--12--0--0--10--12--10--8--10--|

E||---------------------------------------------------|
B||---------------------------------------------------|
G||---------------------------------------------------|
D||---------------------------------------------------|
A||--------12--13--12--------10--12--10--------8--10--|
D||--0--0--12--13--12--0--0--10--12--10--0--0--8--10--|
        
E||----------------------------------------------|
B||----------------------------------------------|
G||----------------------------------------------|
D||----------------------------------------------|
A||--------12--13--12----------------------------|
D||--0--0--12--13--12--0--0--2--0--3--5--0--3--2-|


3. STROPHE 

REFRAIN

BRIDGE

E|-----------------------------------|------------------------------------|
B|-----------------------------------|------------------------------------|
G|-----------------------------------|------------------------------------|
D|-----------------------------------|------------------------------------|
A|-0--2--0--2--0--0--2--0--0--0--0--0|-0--2--0--2--0--0--2--0--0--0--0--0-|
D|-0--2--0--2--0--0--2--0--0--0--0--0|-0--2--0--2--0--0--2--0--0--0--0--0-|


E|-----------------------------------|------------------------------------|
B|-----------------------------------|------------------------------------|
G|-----------------------------------|------------------------------------|
D|-----------------------------------|------------------------------------|
A|-0--2--0--2--0--0--2--0--0--0--0--0|-0--2--0--2--0--0--2--0--0--0--0--0-|
D|-0--2--0--2--0--0--2--0--0--0--0--0|-0--2--0--2--0--0--2--0--0--0--0--0-|


End (2x)

E||---------------------------|---------------------------|
B||---------------------------|---------------------------|
G||---------------------------|---------------------------|
D||--6-----------6------------|--6-----------6------------|
A||--6--0--0--0--6--0--0------|--6--0--0--0--6--0--0------|
D||--6--0--0--0--6--0--0------|--6--0--0--0--6--0--0------|
                           
E||---------------------------|---------------------------|
B||---------------------------|---------------------------|
G||---------------------------|---------------------------|
D||--6-----------6------------|--6-----------6------------|
A||--6--0--0--0--6--0--0------|--6--0--0--0--6--0--0------|
D||--6--0--0--0--6--0--0------|--6--0--0--0--6--0--0------|
                           

************************************

| /   slide up
| \   slide down
| h   hammer-on
| p   pull-off
| ~   vibrato
| +   harmonic
| x   Mute note
| b   Bend
| pb  Pre-bend
| br  Bend release
| pbr Pre-bend release
| brb Bend release bend

************************************
Tap to rate this tab
 
# A B C D E F G H I J K L M N O P Q R S T U V W X Y Z