Song name
# A B C D E F G H I J K L M N O P Q R S T U V W X Y Z

Schwervon - Swamp Thing tab

-------------------------------------------------------------------------------
			     SWAMP THING - The Chameleons
-------------------------------------------------------------------------------
Tabbed by: Klaus Hurskainen
Email: klaus.hurskainen@elisanet.fi

Tuning: Standard (EADGBe)

This is based on the acoustic version from "This Never Ending Now".
This song has two guitars in it, one that plays the basic riff
and all the other fancy stuff and another one that plays the
basic chords. Have fun!

Part 1
e|-------------------------|
B|-------------------------|
G|-------------------------|
D|-5s7---10p7---5s7---7---|
A|-----0------0-----0---0-|
e|-------------------------|

Part 2
e|--------------------------|
B|--------------------------|
G|--------------------------|
D|-5s7---10-7---5s7---10-7-|
A|-----0------0-----0-------|
E|--------------------------|

Part 3
e|-0-----------0----------------|
B|---3---0h1-----3---0h1---0-1-|
G|-----2-----2-----2-----2------|
D|------------------------------|
A|------------------------------|
E|------------------------------|

Part 1	X3
Part 2	X1
Part 1	X3
Part 2	X1
Part 3	X3
repeat...

F	G	Am	F	G	Am
	   F 	   G 		 Am
I can already hear your tune
F		 G		 Am
Calling me across the room
F			G
When the world and his wife
Am
Are on my back again
F		G
Not enough pleasure
Am
Too much pain

   F				    C				Bb
e|---------------------------------------------------|
B|-------1---------1---------------------------------|
G|-----2---2-----2---2-----------9-------------7-----|
D|---3---------3--------------10---10--------8---8---|
A|-3---------3-------------10---------10---8-------8-|
E|-----------------------8---------------6-----------|

F
  When the world is too much with me
C		        Bb
 Please leave, just go away
F
Before I lose my mind completely
C			Bb
Please leave, just go now
F
In the sidestreet something's moving
C			Bb
Look around, look around
F
All around you
		C			Bb
Walls are tumbling down
F					 G
Stop staring at the ground

	  F			  G		   Am
I can practically see your face
And another revolutionary falls from grace
Hear the thunder in your brain
Not enough 
much rain

F
 When the light of life has gone
C			Bb
No change for the meter
Then the king of spivs will come
Selling blood by the litre
When nothing's sacred 
When the demon's knocking on your door
You'll still be staring down at the floor

e|----------7-----------7------|
B|------8-----8-------8---8----|
G|----9---9-----9---9----------|
D|-10-------------7------------|
A|-----------------------------|
E|-----------------------------|

C 		   F  G
		Am  						  Dm  G
"Not too many hours from this hour
   C			F  G
So long?
	Am
The storm comes
   Dm  	G		
Or is it just another shower?

   C		 Dm	   F		G
e|-----------------------------|
B|-----------------------------|
G|-----------------------------|
D|-5---------------------------|
A|-------3-5-------------------|
E|-----------------1------3----|

C	Dm	 	F   G		C 	Dm
F 	G						C	Dm
    Picking up the pieces
F			G
Half alive in a nine 'til five
C	 Dm
Vacant eyes
F	G				C	Dm
Is it any wonder?
F	                G		
Primal scream at the TV screen
C		Dm		F	G
Close your eyes

F
 Now the world is too much with me
C			Bb
Please leave, just go away
Is nothing's sacred anymore
Now the demon's knocking on your 
still your staring down at the floor

C 		   F  G
		Am  						  Dm  G
Not too many hours from this hour
So long?
The storm comes
Or is it just another shower?
Not too many hours from this hour
So long??
The storm comes
Or is it just another shower?
Now the rain has come
The rain has come

=============================================================
Tap to rate this tab
 
# A B C D E F G H I J K L M N O P Q R S T U V W X Y Z