Scissor Sisters - Shes My Man tab

-----------------------------------------------------------------------------
			     She's My Man - Scissor Sisters
-----------------------------------------------------------------------------


Tuning:Standard

e|----------------------------------------------------------|
B|----------------------------------------------------------|
G|----------------------------------------------------------|
D|/4--2--0--------------------/4--2--0-----------------0----|
A|----------4--2---2---0-2-2------------4--2---2---0-2---2--|
E|-------------------2---------------------------2----------|

e|-------------------------------------------------|
B|-------------------------------------------------|
G|-------------------------------------------------|
D|/4--2--0-----------------------------------------|
A|----------4--2---2---0-2----4--4--4-2-4-5-4-2----|
E|-------------------2-----------------------------|

e|----------------------------------------------------------|
B|----------------------------------------------------------|
G|----------------------------------------------------------|
D|/4--2--0--------------------/4--2--0-----------------0----|
A|----------4--2---2---0-2-2------------4--2---2---0-2---2--|
E|-------------------2---------------------------2----------|

e|-----------------------------------------|
B|-----------------------------------------|
G|-----------------------------------------|
D|/4--2--0---------------------------------|
A|----------4--2---2---0-2----4--4--4--5-5-|
E|-------------------2---------------------|
Tap to rate this tab
 
# A B C D E F G H I J K L M N O P Q R S T U V W X Y Z