Song name
# A B C D E F G H I J K L M N O P Q R S T U V W X Y Z

Scissor Sisters - Take Your Mama tab

this is the solo to "Take your mama" by the SCISSOR SISTERS!Enjoy! Tuning: STANDARD (E,B,G,D,A,G)
Tabbed by Butty
Email-carpetiles@hotmail.com

E|8-9-6---6-9-6------------6-8-9-9-9-6--------------------------------6---6-|
B|------9-------9-9-6-8-9---------------9-8-6-8-6-----------------6-8---8---|
G|------------------------------------------------6--------5-6-7------------|
D|-------------------------------------------------8-8-5-8------------------|
A|--------------------------------------------------------------------------|
E|--------------------------------------------------------------------------|

E|8-9----3-4-3-----------------6-8-11-11-11-9-8---11-11-11-11-9-------------|
B|-----6-------6-4-------6-8-9------------------11---------------9-11-11-9--|
G|-----------------6-3-3----------------------------------------------------|
D|--------------------------------------------------------------------------|
A|--------------------------------------------------------------------------|
E|--------------------------------------------------------------------------|

E|-------
B|11-9-11
G|-------|
D|-------|
A|-------|
E|-------|
Tap to rate this tab
# A B C D E F G H I J K L M N O P Q R S T U V W X Y Z