Song name
# A B C D E F G H I J K L M N O P Q R S T U V W X Y Z

Scissor Sisters - Skins tab

this song is on the UK version of the album.
I have been looking for this tab for ages and not found it, so i worked it out myself.

There are 2 main riffs, verse and chorus.

VERSE
       
e|-----------------------------|-----------------------------|
B|-----16-16-16-16-------------|-----16-16-16-16-------------|
G|-----------------15-15-15-15-|14---------------15-15-15-15-|
D|-----------------------------|-----------------------------|
A|-----------------------------|-----------------------------|
E|-----------------------------|-----------------------------|

e|-----------------------------|-----------------------------|
B|-----16-16-16-16-------------|-----16-16-16-16-------------|
G|12---------------15-15-15-15-|14---------------------------|
D|-----------------------------|-----------------------------|
A|-----------------------------|-----------------------------|
E|-----------------------------|-----------------------------|
pick rapidly
repeat as many times as necessary

CHORUS

e|-----------------------------|-----------------------------|
B|-----16-16-16--------15-15-15|-----------------------------|
G|-----------------------------|14-14-14-14-14-14-14h15p14-14|
D|-----------------------------|-----------------------------|
A|-----------------------------|-----------------------------|
E|-----------------------------|-----------------------------|
pick rapidly
repeat as many times as necessary

that's it! Short and sweet

Will (legend)
Tap to rate this tab
 
# A B C D E F G H I J K L M N O P Q R S T U V W X Y Z