Song name
# A B C D E F G H I J K L M N O P Q R S T U V W X Y Z

Scissorfight - Acid For Blood tab

Acid for Blood
Scissorfight

Tuning: Drop-A (A-E-A-D-F#-B)



q = quarter bend up



Main riff

|----------------------|
|----------------------|
|----------------------|
|-2--0-2-5-2--0---2--5-|
|-2--0-2-5-2--0---2--5-|
|-2--0-2-5-2--0---2--5-|



"The chord" [E7]

|---|
|-5-|
|-6-|
|-5-|
|-7-|
|-7-|



Lick 1

|-0-----0-----0-----0-----3-|
|---0h3---3q----3q----3q----|
|---------------------------|
|---------------------------|
|---------------------------|
|---------------------------|



Lick 2

|-0-----0-----0-----0-----3-|-0-----0-----3q-3q-3q-0----|
|---0h3---3q----3q----3q----|---0h3---3q--3q-3q-3q---3q-|
|---------------------------|---------------------------|
|---------------------------|---------------------------|
|---------------------------|---------------------------|
|---------------------------|---------------------------|

|-0-----0-----0-----0-----3-|-0-----0-------------------|
|---0h3---3q----3q----3q----|---0h3---3q----------------|
|---------------------------|-------------2q----2-0-----|
|---------------------------|------------------------2--|
|---------------------------|---------------------------|
|---------------------------|---------------------------|



Middle

|----------------------------|
|----------------------------|
|----------------------------|
|-11-10--10-10-8--8-8-6--6-5-|
|------------------------6-5-|
|------------------------6-5-|

|----------------------------|
|----------------------------|
|----------------------------|
|-11-10--10-10-8--8-8-6--6-5-|
|-11-10--10-10-8--8-8-6--6-5-|
|-11-10--10-10-8--8-8-6--6-5-|


|----------------------------|
|----------------------------|
|----------------------------|
|------------------0h2~--2p0-|
|----------------------------|
|-6/7--2-2-2--6/7------------|

|----------|
|----------|
|----------|
|----------|
|----------|
|-6/7--2-2-|


|----------------------------|
|----------------------------|
|----------------------------|
|------------------7/9~--9/7-|
|-6/7--2-2-2--6/7--5/9~--9/7-|
|-6/7--2-2-2--6/7------------|

|----------|
|----------|
|----------|
|----------|
|-6/7--2-2-|
|-6/7--2-2-|



Lick 3

|-0-----0-----0-----0-----3-|-0-----0-----3q-3q-3q-0----|
|---0h3---3q----3q----3q----|---0h3---3q--3q-3q-3q---3q-|
|---------------------------|---------------------------|
|---------------------------|---------------------------|
|---------------------------|---------------------------|
|---------------------------|---------------------------|

|-0-----0-----0-----0-----0-|-----------------------------------------------|
|----3q---3q----3q----3q----|-5h8p5-----5-----5-----------------------------|
|---------------------------|-------7b9---7b9---7b9-4-----------------------|
|---------------------------|-------------------------7b9b7p5----7-b9b7p5---|
|---------------------------|---------------------------------7-----------7-|
|---------------------------|-----------------------------------------------|



Final chorus licks

|----------------------------12-------12-12-----------|
|-------------------------12----------12-12-----------|
|-14b16b14p12----12h14b16-------14b16-------14b16-13~-|
|-------------12--------------------------------------|
|-----------------------------------------------------|
|-----------------------------------------------------|

|-------12-------12-----------------------------------|
|-15b17----15b17----15-12-------------------15b17~----|
|-------------------------14b16b14-14-12-12-----------|
|-----------------------------------------------------|
|-----------------------------------------------------|
|-----------------------------------------------------|

|-15b17-17b15-12-------12-------12--------------------|
|----------------15b17----15b17----15-12--------------|
|----------------------------------------14b16-14-12~-|
|-----------------------------------------------------|
|-----------------------------------------------------|
|-----------------------------------------------------|

|-12h15-15/17q-15~\-------12h15-15b17-15~-------------|
|-----------------------------------------------------|
|-----------------------------------------------------|
|-----------------------------------------------------|
|-----------------------------------------------------|
|-----------------------------------------------------|



Final chord [E7]

|-5-|
|-5-|
|-6-|
|-5-|
|-7-|
|-7-|
Tap to rate this tab
# A B C D E F G H I J K L M N O P Q R S T U V W X Y Z