Song name
# A B C D E F G H I J K L M N O P Q R S T U V W X Y Z

Scooter - One Always Hardcore tab

-----------------------------------------------------------------------
		     Scooter - One (always hardcore)
-----------------------------------------------------------------------

I tried re-creating this tab as i love the start
of the song and it sounds beautiful. If anyone has
any suggestions/criticism then feel free to email me.

Tabbed by: c5cha7
Email: c5cha7@hotmail.com

Tuning: Standard
Legends: "/ slide up"

[Guitar 1]: Main - Not Repeated
e|-----------------------------------------|
B|---14-14-14-12--15-17--14-12-12/14-12-10-|
G|-----------------------------------------|
D|---14-14-14-12---------------------------|
A|-----------------------------------------|
E|-----------------------------------------|

e|-----------------------------------------|
B|-13-13-11-9-11--15-17--14-12-12/14-12-10-|
G|-----------------------------------------|
D|-13-13-----------------------------------|
A|-----------------------------------------|
E|-----------------------------------------|

[Guitar 2]: Background - Repeat x2
e|-----------------------------------------|
B|-----7--------7--------10----------------|
G|---7--------7--------9-------------------|
D|-7-----7--8-----8--9------7--------------|
A|-----------------------------------------|
E|-----------------------------------------|

I know, i know.. its pretty terrible but if you think
you can do better or lend a hand then feel free to email me.
I couldn't find this tab ANYWHERE on the internet so i thought
it'd be nice to share what i made.
Tap to rate this tab
 
# A B C D E F G H I J K L M N O P Q R S T U V W X Y Z