Song name
# A B C D E F G H I J K L M N O P Q R S T U V W X Y Z

Scorpions - Here In My Heart tab

Here In My Heart

Solo 1:

Gtr 1|-4---4--2--0-----------------5-4--------------------------------------|
     |-5-------------------------------5/7--------------------2-4-5--7/9--9-|
     |-4------------2----(2)-1----------------------------2-4---------------|
     |----------------------------------------------2-4-6-------------------|
     |-------------------------0------------2-2-4-6-------------------------|
     |----------------------------------------------------------------------|



Gtr 1|-7--5--4--------------7-------------------4----7--5--4-------9-9-------------|
     |----------5----4-2-4-----------------5--5---5-----------7-------10-9-7-------|
     |--------------------------------4-6------------------------------------9-8-9-|
     |------------------------4-4-6-7----------------------------------------------|
     |-----------------------------------------------------------------------------|
     |-----------------------------------------------------------------------------|


Solo 2:

Gtr 1|---4--2--0-------------------------7------------5----9----12--------|
     |--5---------2-----------------9-------9-------5---5----5-------9----|
     |------------------------6-8-9---9-----------6------------------9----|
     |-6----------------6-7-9-------------------7--------------------9----|
     |---------------------------------------------------------------7----|
     |--------------------------------------------------------------------|
Tap to rate this tab
 
# A B C D E F G H I J K L M N O P Q R S T U V W X Y Z