Song name
# A B C D E F G H I J K L M N O P Q R S T U V W X Y Z

Scorpions - Obsession tab

This Tab is donated by John-Paul Jalwan (Lebanon)
e-mails: blackout@cyberia.net.lb
	 jp@cartage.org.lb
	 webmaster@scorpsonline.com

my Scorpions' homepage: http://www.scorpsonline.com


Subject: Obsession (Guitar Solo)
Artist: Scorpions
Album: Eye To Eye 1999



e|--------------------------------------------------------------8-----|
B|-13b-13r-10-13-10----------------------------------------------8b---|
G|---------------------7br-7v-----7(v+ah)-----5--------------5--------|
D|----------------------------10-----------/7-------------/7----------|
A|-----------------------------------------------5-3------------------|
E|--------------------------------------------------------------------|




e|----------------------------------8----------------12-12-13b--------|
B|------------------------------------8b---10-8b----------------------|
G|--2----------------------------5------------------------------------|
D|----5-2-----------(5b+ah)-------------------------------------------|
A|--------3-5b---3----------------------------------------------------|
E|--------------------------------------------------------------------|




e|---12----12----12---------------------------------------------------|
B|------15----13----13b-------13---12---------------------------------|
G|------------------------------------12------------------------------|
D|--------------------------------------12-14 ah----------------------|
A|--------------------------------------------------------------------|
E|--------------------------------------------------------------------|



b  = bending
ah = artificial harmonics
v  = vibrato
/  = slide


I hope you'll enjoy it
sorry for being late!!!
Tap to rate this tab
 
# A B C D E F G H I J K L M N O P Q R S T U V W X Y Z