Song name
# A B C D E F G H I J K L M N O P Q R S T U V W X Y Z

Scorpions - New Generation tab

Help us improve GuitareTab! Take a short survey!
Drop D tuning
*=Artificial Harmonic

Main riff
e-------------------------------|----------------------------------|
B-------------------------------|----------------------------------|
G-------------------------------|----------------------------------|
D-------------------5*-3*-------|----------------------3*----------|
A-3h5-----5---3-5---------------|-3h5-----5---3-5---3*-------------|
D-0-0-0-0-0-0-0-0-0-------------|-0-0-0-0-0-0-0-0-0----------------|

Harmony
e-------------------------------|-------------------0--1-----------|
B-------------------------------|----------------------------------|
G-------------------12-10-------|----------------------------------|
D-------------------------------|----------------------------------|
A-3h5-----5---3-5---------------|-3h5-----5---3-5------------------|
D-0-0-0-0-0-0-0-0-0-------------|-0-0-0-0-0-0-0-0-0----------------|

Thats all i have for now i will tab the rest soon
Related for New Generation tab