Guitaretab - guitar tabs
Song name
# A B C D E F G H I J K L M N O P Q R S T U V W X Y Z

Scorpions - Make It Real Acoustic tab

MAKE IT REAL
By: Ahkie Villanueva  02/01/07
	kirkxyrrusvillanueva@yahoo.com.ph

Intro:

E|--0-----0-------------0-------------2-------------------------||
B|--2---2-----2---0---0-----0---3---3-----3---2-2-0-2-----------||
G|--2-2-----2---0-1-1-----1---0-2-2-----2---0-2-2-0-2-----------||
D|--------------------------------------------------------------||
A|--0-------------0-------------0-------------0-0-0-0-----------||
E|--------------------------------------------------------------||


Stanza:

E|--0-----0-------0-----0-------------2-------0-----0-------------|
B|--2---2-----2---0---0-----0---3---3-----3---2---2-----2---------|
G|--2-2-----2---0-1-1-----1---0-2-2-----2---0-2-2-----2---0-------|
D|----------------------------------------------------------------|
A|--0-------------0-------------0-------------0-------------------|
E|----------------------------------------------------------------|

E|--0-----0-------0-----0-------------2-------0-----0-------------|
B|--2---2-----2---0---0-----0---3---3-----3---2---2-----2---------|
G|--2-2-----2---0-1-1-----1---0-2-2-----2---0-2-2-----2---0-------|
D|----------------------------------------------------------------|
A|--0-------------0-------------0-------------0-------------------|
E|----------------------------------------------------------------|

Refrain:

E|--2-----2-------2-----2-------2-2---4-4---4-2-------0-----------|
B|--2---2-----2-------3-----3---3-3-T-5-5-T-5-3---3---0---0-------|
G|--2-2-----2---0---2-----2---0-4-4-A-6-6-A-6---2---0-1-1---0-----|
D|----------------0-----------------P-----P---0-------------------|
A|--4---------------------------2-----4-----4---------2-----------|
E|----------------------------------------------------------------|

E|--2-----2-------2-----2-------2-2---4-4---4---2-2---0---------||
B|--2---2-----2-------3-----3---3-3-T-5-5-T-5---3-3-0-0---------||
G|--2-2-----2---0---2-----2---0-4-4-A-6-6-A-6---2-2-1-----------||
D|----------------0-----------------P-----P-----0-0-------------||
A|--4---------------------------2-----4-----4-0-----2-2---------||
E|--------------------------------------------------------------||

Chorus:
[ Tab from: http://www.guitaretab.com/s/scorpions/151766.html ]
E|----------2-------0-----0---------------2-------0-----0---------|
B|--2---2-------3-------0-----0---2---2-------3-------0-----0-----|
G|--2-2---0---2---0---1-----1---0-2-2---0---2---0---1-----1---0---|
D|----------0-------2---------------------0-------2---------------|
A|--0-----------------------------0-------------------------------|
E|----------------------------------------------------------------|

E|------0-2-----------0-2-------2-----2-------0-----0-------------|
B|--2-2-------3---0-0---2---2-------3-----3-------0-----0---------|
G|----------2---0-1-----2-2---0---2-----2---0---1-----1---0-------|
D|--------0---------------------0-----0---------------------------|
A|--0-------------2-----4---------------------2-----2-------------|
E|----------------------------------------------------------------|

E|--0-----0-------------0-------------2-------------------------||
B|--2---2-----2---0---0-----0---3---3-----3---2-2-0-2-----------||
G|--2-2-----2---0-1-1-----1---0-2-2-----2---0-2-2-0-2-----------||
D|--------------------------------------------------------------||
A|--0-------------0-------------0-------------0-0-0-0-----------||
E|--------------------------------------------------------------||


Pips, to make it easier for you to get the rhythm and to know where to place your 
here's the lyrics together with the chords..^_^


A   – 002220
A9  – 002100
D   - 000232
F#m – 244222
Bm  - 224432
C#m – 446654
E   - 022100

Intro:
A-A9-D-A

I.
   A                 A9
Tonight, its been a year
    D              A
We met each other here
       A        A9
Here I am, all alone
     D               A
As thoughts of you go on


Refrain:
         F#m           D
Hear me crying out to you
           Bm     C#m  D        E
You said “Never, never would I leave”
         F#m              D
Here’s a tear from me to you
      Bm  C#m      D        E
And maybe it will make you hear me


Chorus:
A  D    E
I love you
 A          D        E
You didn’t feel the same
  A          D
Though were apart
  E          F#m
You’re in my heart
        D
Give me one more chance to
 E       A-A9-D-A
Make it real

II. (Same chords as 1st stanza)

In a dream, you are here

You smile and hold me near

And in my heart, I’ll pretend

That you are here again


Refrain
Chorus

its my 1st tym to tab a song.. this is my own version.. a comment from you guys would be 
appreciated.. thx a lot..^_^
This song is dedicated to Peri..^_^
@];-™
Related for Make It Real Acoustic tab