Song name
# A B C D E F G H I J K L M N O P Q R S T U V W X Y Z

Scorpions - Humanity tab

Bill Theocharidis

first solo (please listen to the song for timing!)
--------------------------------------------------------------------|
----------9-7-5754-------------9-7-5754-----------------------------|
--6-8-9--------------11-13-14------------11--9--11-9-8--------------|
--------------------------------------------------------------------|
--------------------------------------------------------------------|
--------------------------------------------------------------------|


Chords:
Cm#
-----4-----4----4--|
-------5-----5-----|
---------6-----6---|
-------------------|
--4----------------|
-------------------|

A
-----5-----5----5--|
-------5-----5-----|
---------6-----6---|
-------------------|
-------------------|
--5----------------|

B
-----7-----7----7--|
-------7-----7-----|
---------8-----8---|
-------------------|
-------------------|
--7----------------|

F#
-----4-----4----4--|
-------4-----4-----|
---------5-----5---|
-------------------|
-------------------|
--4----------------|


Cm#(riff)
-----------------------|
-----------------------|
--6-6-6-6--x--6-6-6-6--|
--6-6-6-6--x--6-6-6-6--|
--4-4-4-4--x--4-4-4-4--|
-----------------------|
d u d u d u d u

u-upstrokes
d-downstrokes


Cm#
Humanity
Cm# A
Auf wiedersehen it's time to say good bye
A B
The party's over as the laughter dies
F#
An angel cries
Cm#
Humanity...

Cm# Cm#
Your a drop in the rain just a number not a name
B B
And you won't see it you don't believe it

...

A B
Humaaaanity
A B
Humaaaanity
Cm#(riff)
Goodbye...
Tap to rate this tab
# A B C D E F G H I J K L M N O P Q R S T U V W X Y Z