Song name
# A B C D E F G H I J K L M N O P Q R S T U V W X Y Z

Scorpions - Only A Man tab

Help us improve GuitareTab! Take a short survey!
Song:"Only A Man"
Artist:"Scorpions"
Album="Animal Magnetism"
Lyricist="Klaus Meine, Herman Rarebell"
Composer="Rudolf Schenker"
Tuning="Default Tuning"
Transcribed by="John-Paul Jalwan"


Comments:

1-my e-mail: redwood237@yahoo.com
2-I got a website about scorpions: http://scorps.itgo.com


1st Voice Only
2nd Overdriven Guitar:

Verse:
|------------------------------------------------------------------------|
|------------------------------------------------------------------------|
|------------------------------------------------------------------------|
|-5--7--8--10--8--7-----5--7--8--10--8--7-----5--7--8--10--8--7--5--7--8-|
|-5--7--8--10--8--7-----5--7--8--10--8--7-----5--7--8--10--8--7--5--7--8-|
|-3--5--6---8--6--5-----3--5--6---8--6--5-----3--5--6---8--6--5--3--5--6-|




Chorus:
|------------------------------------------------------------------|
|------------------------------------------------------------------|
|--7------3--3---10--10---5--5----12--12----7---10-12--------------|
|--7------3--3---10--10---5--5----12--12----7---10-12--------------|
|--5------1--1----8---8---3--3----10--10----5----8-10--------------|
|------------------------------------------------------------------|

Woman, I'm Only A Man...




|----------------------------------------------|
|----------------------------------------------|
|--5------------------------3------------------|
|--5------------------------3------------------|
|--3------------------------1------------------|
|----------------------------------------------|
Now You Know How I Feel,    Nothing Is Real...




Here's The Overdrive During The Solo:

|------------------------------|
|------------------------------|
|----------------7--5----------|
|--5-7-----5-7---7--5----------|
|--5-7-----5-7---5--3----------|
|--3-5-----3-5-----------------|  Etc..

Related for Only A Man tab