Song name
# A B C D E F G H I J K L M N O P Q R S T U V W X Y Z

Scorpions - White Dove tab

						White  Dove
						 Scorpions
						 Live Bites

This is the intro as i can hear it.of course as in most acoustic Scorpions song there 
several guitars which give me a lot of nerve because i cant tab them out


-12---------10----------|-10----10-10------10--8----8----------|
---12-13-10----12-10----|----10---------10------------10-------|
---------------------12-|------------------------9-------------|
------------------------|--------------------------------------|
------------------------|--------------------------------------|
------------------------|--------------------------------------|

-12----------10----------|-------5---5--------|
----12-13-10----12-10----|-----6---6-----6----|
----------------------12-|---7---------7------|
-------------------------|-0------------------|
-------------------------|-----------------0--|
-------------------------|--------------------|


Hope it helps for you because the intros ont th net that Ive found did not sound properly
Tap to rate this tab
 
# A B C D E F G H I J K L M N O P Q R S T U V W X Y Z