Song name
# A B C D E F G H I J K L M N O P Q R S T U V W X Y Z

Scorpions - You Give Me All I Need tab

OK, I'M 13, I'VE ONLY BEEN PLAYING FOR ABOUT A YEAR SO I MIGHT GET SOME BITS WRONG.
AIDAN UNDERHILL,NICKNAME... EDDIE VAN AIDAN
ALBUM; BLACKOUT, 1982
BAND;SCORPIONS
RUDOLF PLAYS THE LEAD ON THIS SONG
TUNING E A D G B e

b= bend
pb= pre-bend
h= hammer on
r= release bend
p= pull off
hb= hold bend
~= vibrato
lr= let ring

INTRO;
e ----------------------------------------------------------------|
B ----------------------------------------------------------------|
G --3-5-7-8b9---3-5-7-8b9---5-7-8-9----pb14to16r14---9-10-12-12---|
D ----------------------------------------------------------------|
A ----------------------------------------------------------------|
E ----------------------------------------------------------------|

         END OF RIFF 1*       RIFF 2**
e --------------------------------0-0----------------0-0-----------|
B -----------------------------**10-10--8\5-10\8~~~-10-10--8\5-----|
G -10-8-8b9hb9r8b9r8b9r8b9r8b9*--------------------------------7~~-|
D -----------------------------------------------------------------|
A -----------------------------------------------------------------|
E -----------------------------------------------------------------|

e -0-0--------------5-7b8r7-5-7b8r7-5-5----------0-0---------------|
B -10-10-8\5-10\8~~~-----------------8---8-5-----10-10-8\5-10\8~~~-|
G -----------------------------------------------------------------|
D -----------------------------------------------------------------|
A -----------------------------------------------------------------|
E -----------------------------------------------------------------|

e -5-7-7b8r7-5-7b8r7-5-5-------|       RUDOLF PLAYS RIFF 2 OVER THE RHYTHM
B --------------------8---8-5--|       THE LAST TIME THE CHORUS IS SUNG
G -----------------------------|       AFTER THE SOLO.
D -----------------------------|
A -----------------------------|
E -----------------------------|

THE VERSE USES CHORDS, I KNOW TWO OF THEM ARE G AND F.

CHORUS
YOU GIVE ME ALL I NEED.....YOU GIVE ME ALL I NEED....
e ----------------------|
B ----------------------|
G --2-2-----2------2----|
D --2-2--2--2---5--2----|
A --0-0--2--0---3--0--5-|
E -------0------------3-|  X4

SOLO; I'M GONNA HAVE A GOOD GO AT THIS. (IT PROBABLY IS MOSTLY WRONG)

e --5-5-7-8-7-------------0----------------------------------------------|
B ------------5-5-5h6~~~~~-10--12b13r12b13r12b13r12--10-12~~-16b17--15~~-|
G -----------------------------------------------------------------------|
D -----------------------------------------------------------------------|
A -----------------------------------------------------------------------|
E -----------------------------------------------------------------------|

e ----------------------------------------------------------------------|
B --10-12-13-13--10h12p10--8b10-7-8b10-7--5--4b5------------------------|
G ----------------------------------------------------------------------|
D ----------------------------------------------------------------------|
A ----------------------------------------------------------------------|
E ----------------------------------------------------------------------|

e ---12--17p16-12h17p16-12-17p16-12h17p16-12-16\---17--19b20r19--17--19b20-|
B -------------------------------------------------------------------------|
G -------------------------------------------------------------------------|
D -------------------------------------------------------------------------|
A -------------------------------------------------------------------------|
E -------------------------------------------------------------------------|

e --(hold bend)20-20-20-20-19h20p17h19p17------19-17-16lr-----------------|
B ------------------------------------------------------------------------|
G ------------------------------------------------------------------------|
D ------------------------------------------------------------------------|
A ------------------------------------------------------------------------|
E ------------------------------------------------------------------------|

then you play riff 2 in the chorus (lead guitar), until the song dies out.
Tap to rate this tab
# A B C D E F G H I J K L M N O P Q R S T U V W X Y Z