Song name
# A B C D E F G H I J K L M N O P Q R S T U V W X Y Z

Scorpions - 321 tab

K this song is tuned 1 and a half steps down:c# f# b e g# c#

intro:after  8 snare drum beats
----------------------------------|
----------------------------------|
----------------------------------| play 4 times
----------------------------------|
----------------------------------|
-0-2-3-0-3-5-0-2-3-0-3-5-0-2-3vvv-|

verse: same as intro but palm-muted ,play 8 times

interlude
------------------------------|
------------------------------|
------------------------------|
------------------------------|
------------------------------|
-00-0-0-00-0-0-0000-----------|

chorus:
E5              G5
Save me Cause the world's gonna stop
     D5         A5
Baby 321 Are you ready to rock Come on and
E5                G5
wake me The final curtain will drop
     D5          E5
Baby 321 Are you ready to rock
G5
Are you ready to rock
D5
Are you ready to rock
A5
Are you ready to rock
Tonight
***on tonight play the intro riff and REPEAT ONCE ie play twice

play verse 8 times and move into the 2nd chorus

E5              G5
Save me Cause the world's gonna stop
     D5         A5
Baby 321 Are you ready to rock Come on and
E5                G5
wake me The final curtain will drop
     D5          E5
Baby 321 Are you ready to rock
G5
Are you ready to rock
D5
Are you ready to rock
A5
Are you ready to rock
G5
Are you ready to rock
D5
Are you ready to rock
A5
Are you ready to rock
tonight

solo rythm:

C5    B5  G5/A5

----------------------------------|
----------------------------------|
----------------------------------|
----------------------------------|
----------------------------------|
-0-2-3-0-3-5-0-2-3-0-3-5-0-2-3vvv-|

C5    B5  G5/A5

----------------------------------|
----------------------------------|
----------------------------------| play this intr riff 4 times
----------------------------------|
----------------------------------|
-0-2-3-0-3-5-0-2-3-0-3-5-0-2-3vvv-|


bridge: no guitar part

when klaus says 3 2 1 ther is a slide from the 15th fret,so:

-------------------------|
-------------------------|
-------------------------|
-------------------------|
-------------------------|
-15/---------------------|

move into chorus:

E5              G5
Save me Cause the world's gonna stop
     D5         A5
Baby 321 Are you ready to rock Come on and
E5                G5
wake me The final curtain will drop
     D5          E5
Baby 321 Are you ready to rock
G5
Are you ready to rock
D5
Are you ready to rock
A5
Are you ready to rock
G5
Are you ready to rock
D5
Are you ready to rock
A5
Are you ready to rock
tonight


----------------------------------|
----------------------------------|
----------------------------------| play once and end
----------------------------------|
----------------------------------|
-0-2-3-0-3-5-0-2-3-0-3-5-0-2-3vvv-|


                         THE END
Tap to rate this tab
# A B C D E F G H I J K L M N O P Q R S T U V W X Y Z