Song name
# A B C D E F G H I J K L M N O P Q R S T U V W X Y Z

Scorpions - Love Will Keep Us Alive tab

-------------------------------------------------------------------------------
			     Love Will Keep Us Alive - Scorpions
-------------------------------------------------------------------------------
Tabbed by:maes21
Email:zachbo21@live.com

Tuning:Standard E A D G B e

This is my first tab, new member, so please rate and leave comments and/or email me corrections. 
The timing might be off but listen to the song and you'll figure it out.

Intro:
e|-------------------------------------------------------------------------|
B|--------------10-8-6-10-8------------------------------------------------|
G|-----5h7~---7-------------9-5~---------5-10-7h9p7-5-5h7~-----------------|
D|-------------------------------------------------------------------------|
A|-------------------------------------------------------------------------|
E|-------------------------------------------------------------------------|

e|-------------------------------------------------------------------------|
B|----10-8-6-10-8~---10-8~-------------------------------------------------|
G|--7----------------------------------------------------------------------|
D|-------------------------------------------------------------------------|
A|-------------------------------------------------------------------------|
E|-------------------------------------------------------------------------|




| h  hammer-on
| p  pull-off
| ~  vibrato

===============================================================================
Tap to rate this tab
 
# A B C D E F G H I J K L M N O P Q R S T U V W X Y Z