Song name
# A B C D E F G H I J K L M N O P Q R S T U V W X Y Z

Scorpions - Your Last Song tab

-------------------------------------------------------------------------------
			     Your Last Song (solo) - Scorpions
-------------------------------------------------------------------------------
Tabbed by:SvintoXV
Email:svanterosen@hotmail.com

Tuning:Standard

Just listen and play.. Enjoy :)
e|-----12-12p13~-12---------------------------------------------------------|
B|---15-----------13~~----------------------------15--13-15--13b------------|
G|-14------------------12h14p12~~-10~--12br-p10-----14-----14----12-12h14p12|
D|---------------------------------------------12---------------------------|
A|--------------------------------------------------------------------------|
E|--------------------------------------------------------------------------|

e|--------------------------------------------------------------------------|
B|--------------------------------------------------------------------------|
G|-10-12~~-10-12-12br-p10-12-10h12p10-\9-12-10-9-10-------------------------|
D|-----------------------------------------------------10-10-12-12~~--------|
A|--------------------------------------------------------------------------|
E|--------------------------------------------------------------------------|


e|--------------------------------------------------------------------------|
B|---------------------------------------15-18-15-17b18r17p15---------------|
G|-------------------------------------14--------------------17~~-----------|
D|-------------------12-14/15-12-12~-15-------------------------------------|
A|-10h12p10\8-10~--12-------------------------------------------------------|
E|--------------------------------------------------------------------------|

e|--------------------------------------------------------------------------|
B|-20b22-20-18-20~-18-18h20p18-17-18b20-------------------------------------|
G|--------------------------------------------------------------------------|
D|--------------------------------------------------------------------------|
A|--------------------------------------------------------------------------|
E|--------------------------------------------------------------------------|


| /  slide up
| \  slide down
| h  hammer-on
| p  pull-off
| ~  vibrato
| +  harmonic
| x  Mute note
| b  Bend 
| r  Release
============================================================================
Tap to rate this tab
 
# A B C D E F G H I J K L M N O P Q R S T U V W X Y Z