Guitaretab - guitar tabs
Song name
# A B C D E F G H I J K L M N O P Q R S T U V W X Y Z

Scorpions - Wind Of Change tab

Wind of Change-Scorpions

Here is a version of this song with the second guitar. I know its not completely right, but you can play it as its here. If you have some suggestions to correct it please mail to me at Leerebirne@web.de(Benjamin Marschner. Well, have fun to play this song!

Intro(without acoustic guitar):
w/keyboard+distortion guitar

  F                              Dm 
   PM        PM              P     Vibr.........
1:------------------------------------------------------------------
2:------------------------------------------------------------------
3:------10---------------16-----------------------------------------
4:------10------------15-17--15-------------------------------------
5:-8----8-----0-15-17------------17---------------------------------
6:------------------------------------------------------------------
  F                               Dm 
   PM        PM              P         Vibr.........
1:------------------------------------------------------------------
2:------------------------------------------------------------------
3:------10---------------16-----------------------------------------
4:------10------------15-17--15-15----15----------------------------
5:-8----8-----0-15-17--------------17---(17)------------------------
6:------------------------------------------------------------------
               Am               Dm           Am          G
       P
1:----------------------------------1-----------0-------------------
2:-------------------------------------3-----------1-------3--------
3:--16------------------------------------2-----------2-------4-----
4:--17-15-------17/19------------0-------------------------------5--
5:--------17----15/17-17--\15-----------------0---------------------
6:--------------------------------------------------------3---------

Rhytmn Fill1

C

Verse1(without acoustic guitar):
w/keyboard

                                       Fill1   
C                Dm                   C
I follow the Moskva down to Gorky Park,
                 Rhytmn Fill2      Rhytmn Fill1
C                Dm      Am     G  C
listening to the wind of change
C                Dm                        C
An August summer night, soldiers passing by,
           Fill2
                 Rhytmn Fill2   Rhytmn Fill1
C                Dm      Am     G
listening to the wind of change

Interlude:
w/acoustic guitar+keyboard+distortion guitar

   F                             Dm
   PM        PM              P     Vibr.........
1:------------------------------------------------------------------
2:------------------------------------------------------------------
3:------10---------------16-----------------------------------------
4:------10------------15-17--15-------------------------------------
5:-8----8-----0-15-17------------17---------------------------------
6:------------------------------------------------------------------
  F                               Dm 
   PM        PM              P         Vibr.........
1:------------------------------------------------------------------
2:------------------------------------------------------------------
3:------10---------------16-----------------------------------------
4:------10------------15-17--15-15----15----------------------------
5:-8----8-----0-15-17--------------17-------------------------------
6:------------------------------------------------------------------
                           R.Fill2           R.Fill1
               Am          Dm       Am    G  C
       P
1:------------------------------------------------------------------
2:------------------------------------------------------------------
3:--16--------------------------------------------------------------
4:--17-15-------17/19-----------/19--/17----------------------------
5:--------17----15/17-15-15-----/17--/15--14------------------------
6:------------------------------------------------------------------

Verse2:
w/acoustic guitar+keyboard
 
C                     Dm                       C
The world is closing in, and did you ever think
              Fill3 R.Fill2            R.Fill1
C                   Dm         Am   G  C
that we could be so close like brothers
C                   Dm                      C
The future's in the air can feel it everywhere
  Fill4          R.Fill2
C                Dm      Am     G
a blowin' in the wind of change

Chorus:
w/distortion guitar+acoustic guitar

C     G        Dm           G           C          G
Take me to the magic of the moment on a glory night,
          Dm             G             Am F                G 
where the children of tomorrow dream away  in the wind of change
     Fill5
R.Fill2w/acoustic
C  

Verse3:
w/acoustic guitar+keyboard

C                Dm                     C
Walking down the street, distant memories
                  R.Fill2       R.Fill1
C                 Dm     Am   G C
are buried in the past forever
                                      Fill6
C                Dm                   C
I follow the Moskva down to Gorky Park
              R.Fill2
C             Dm      Am    G
listen to the wind of change 

Chorus:
w/distortion guitar+acoustic guitar

C     G        Dm           G           C          G
Take me to the magic of the moment on a glory night,
          Dm             G                      Am F               G 
where the children of tomorrow share their dreams    with you and me
C     G        Dm           G           C          G
Take me to the magic of the moment on a glory night,
          Dm             G             Am F                G 
where the children of tomorrow dream away  in the wind of change

Bridge:
w/clean E-guitar+acoustic guitar
                                 Fill7
Am                       G
The wind of change blows straight into the face of time,
Am                         G
like a stormwind that will ring the freedom bell for peace of mind.
C                   Dm                          E7
let your balalaika sing what my guitar wants to sing

Solo:
     E7                                    
               B                       B       B             Vib.
1:------------------------------------------------------------------
2:----------12-(13)-12-12-----------12-(13)-12-(13)-12--15/17-------
3:------14----------------------14----------------------------------
4:---14---------------------14--------------------------------------
5:------------------------------------------------------------------
6:------------------------------------------------------------------
   E7                            F            G                     E7
                                              B                   B
1:---------------------------------------------------------------------
2:---------12--13------------------------------------------------------
3:-14--14----------14--12-14-12--14--12--9--12-(14)--12--12--9--10-(12)
4:---------------------------------------------------------------------
5:---------------------------------------------------------------------
6:---------------------------------------------------------------------
  E7                       Am       F
            B
1:--------------------------------------0---------------------------
2:----------------------------------12--12-(13)-12-(13)-12-(13)-----
3:-10-9-7--9-(7)--9--7--5--7--7--14---------------------------------
4:------------------------------------------------------------------
5:------------------------------------------------------------------
6:------------------------------------------------------------------
                                                 Fill8
          G        Am                    F               G    E
1:----15-----------17---15--13---12--13--12-------------------------
2:--------13--12-------------------------------------13--12---12----
3:-----------------------------------------------14-----------------
4:------------------------------------------------------------------
5:------------------------------------------------------------------
6:------------------------------------------------------------------
                Am     Dm                       E7
                                        B
1:-----------12-----12------13------------------16-16-14-----14-16---
2:--13--15-------15----15---------15-(17)--15-------------17---------
3:-------------------------------------------------------------------
4:-------------------------------------------------------------------
5:-------------------------------------------------------------------
6:-------------------------------------------------------------------

Chorus:
w/distortion guitar+acoustic guitar

C     G        Dm           G           C          G
Take me to the magic of the moment on a glory night,
          Dm             G                      Am F               G 
where the children of tomorrow share their dreams    with you and me
C     G        Dm           G           C          G
Take me to the magic of the moment on a glory night,
          Dm             G             Am F                G 
where the children of tomorrow dream away  in the wind of change

Outro (without acoustic guitar):
w/ keyboard+distortion guitar
  F                              Dm
   PM        PM              P     Vibr.........
1:------------------------------------------------------------------
2:------------------------------------------------------------------
3:------10---------------16-----------------------------------------
4:------10------------15-17--15-------------------------------------
5:-8----8-----0-15-17------------17---------------------------------
6:------------------------------------------------------------------
   F                               Dm
   PM        PM              P         Vibr.........
1:------------------------------------------------------------------
2:------------------------------------------------------------------
3:------10---------------16-----------------------------------------
4:------10------------15-17--15-15----15----------------------------
5:-8----8-----0-15-17--------------17---(17)------------------------
6:------------------------------------------------------------------
                Am               Dm
       P                           let ring......................
1:-------------------------------1----------------------------------
2:-------------------------------3----------------------------------
3:--16---------------------------2----------------------------------
4:--17-15-------17/19------------0----------------------------------
5:--------17----15/17-17--\15---------------------------------------
6:------------------------------------------------------------------

!!!!!!!!!!!!!!!!!!!!!!!!!!!!!!!!!!!!!!!!!!!!!!!!!!!!!!!!!!!!!!!!!!!!
all Fills through the song:


Rhytmn Fill1(clean):
   let ring.........................................
1:-0-----------------------------------------------------------------
2:-1-----------------------------------------------------------------
3:-0-----------------------------------------------------------------
4:-2-----------------------------------------------------------------
5:-3-----------------------------------------------------------------
6:-------------------------------------------------------------------

Rhytmn Fill2(clean):
1:-----1-----------0-------------------------------------------------
2:-------3------------1---------3------------------------------------
3:----------2------------2---------4---------------------------------
4:---0--------------------------------5------------------------------
5:---------------0---------------------------------------------------
6:---------------------------3---------------------------------------

Fill1(w/distortion):
1:-----------------------------------------
2:-----------------------------------------
3:-----------------------------------------
4:-----------------------------------------
5:-x---x--x-x--x--x-x--x--x-x--x--x-x--x-x-
6:-----------------------------------------

Fill2(clean):
1:-------------------------------------------------------------------
2:-------------------------------------------------------------------
3:-------------------------------------------------------------------
4:-------12------16/17--16/17----------------------------------------
5:-7/12----12----14/15--14/15----------------------------------------
6:-------------------------------------------------------------------

Fill3(clean):
1:------------------------------------------------------------------
2:------------------------------------------------------------------
3:------------------------------------------------------------------
4:-17/19/17/19/17---------------------------------------------------
5:-15/17/15/17/15---------------------------------------------------
6:------------------------------------------------------------------

Fill4(w/distortion):
          Harmonic-Bend
1:------------------------------------------------------------------
2:------------------------------------------------------------------
3:------------------------------------------------------------------
4:--------14-(16)---10-12-------------------------------------------
5:-10--12-----------------------------------------------------------
6:------------------------------------------------------------------

Fill5(clean):
1:------------------------------------------------------------------
2:------------------------------------------------------------------
3:------------7-----------------------------------------------------
4:---------------10-------------------------------------------------
5:-----7--10--------------------------------------------------------
6:--8---------------------------------------------------------------

Fill6(clean):
           B
1:------------------------------------------------------------------
2:------------------------------------------------------------------
3:--------7-(9)-7-5-------------------------------------------------
4:--5--7-------------------/19--/17---------------------------------
5:-------------------------/17--/15---------------------------------
6:------------------------------------------------------------------

Fill7(clean):
1:------------------------------------------------------------------
2:------------------------------------------------------------------
3:-------14-12-------12-14------------------------------------------
4:-14-14-------14-14------------------------------------------------
5:------------------------------------------------------------------
6:------------------------------------------------------------------

Fill8(lean)[parallel to the solo]:

1:-------------------------------------------------------------------
2:-------------------------------------------------------------------
3:-------------------------------------------------------------------
4:-----------------------12--/14----12--15--14--12-------------------
5:--12---15-14---14-15-----------------------------------------------
6:-------------------------------------------------------------------

1:-------------------------------------------------------------------
2:-------------------------------------------------------------------
3:--13---11-----11--13-----------------------------------------------
4:-----------14------------------------------------------------------
5:-------------------------------------------------------------------
6:-------------------------------------------------------------------
[ Tab from: http://www.guitaretab.com/s/scorpions/21746.html ]
Related for Wind Of Change tab
Wind Of Change chords by Scorpions