Song name
# A B C D E F G H I J K L M N O P Q R S T U V W X Y Z

Scorpions - I Cant Explain tab

-------------------------------------------------------------------------------
			     I Can't Explain - Scorpions
-------------------------------------------------------------------------------
Tabbed by: InvisibleBlade


Tuning: Standard EADGBe

e|---------------------------------------------------------------------------|
B|---------------------------------------------------------------------------|
G|---------------------------------------------------------------------------|
D|-11-x-x-99-x-x---x-x-11 11-------------------------------------------------|
A|-9--x-x-77-x-x-9-x-x-9  9--------------------------------------------------|
E|---------------7-----------------------------------------------------------|

Repeat the above twice, then play this:

e|---------------------------------------------------------------------------|
B|---------------------------------------------------------------------------|
G|---------------------------------------------------------------------------|
D|-11-9---11------(11)-(9)---------------------------------------------------|
A|-9 -7-9-9------ (9) -(7)-(9)\(7)-(4)---------------------------------------|
E|------7------------------(7)\(5)-(2)---------------------------------------|

Repeat the above three times then on the fourth time finish with the notes in ()




This was done by ear and I think it sounds better than the other tab.
I added the slide in there to spice it up so use it if you want.  
This was all I could figure out, so I hope you can at least start with this and build from it.  
Also please rate accordingly, I am aware this is only the intro... 


************************************

| /   slide up
| \   slide down
| h   hammer-on
| p   pull-off
| ~   vibrato
| +   harmonic
| x   Mute note
| b   Bend
| pb  Pre-bend
| br  Bend release
| pbr Pre-bend release
| brb Bend release bend

************************************
Tap to rate this tab
# A B C D E F G H I J K L M N O P Q R S T U V W X Y Z