Guitaretab - guitar tabs
Song name
# A B C D E F G H I J K L M N O P Q R S T U V W X Y Z

Scorpions - Holiday tab

Song:Holiday
   Artist:Scorpions
      Album:Lovedrive
          Tuning:Regular Tuning
              Transcribed By:Syafiq



intro:


                           *SOLO*
E|----------| |---------| |---------| |----------| |----------|   *
B|----------| |---------| |---------| |----------| |----------|   |
G|----------| |---------| |---------| |----------| |----------|   |
D|0---------| |3--------| |5/7------| |5-2-------| |-------5--|   |
A|----------| |---------| |---------| |----------| |----------|   |
E|----------| |---------| |---------| |----------| |----------|   |

                                                               Play With
                           *RHYTHM*                               
     Dm         Dm7          Dm6          A4           A'
E|-1--1--1-| |-1--1--1-| |-1--1--1-| |-0--0---0-| |-5---5--5-|    |
B|--3--3---| |--3--3---| |--3--3---| |--3--3----| |--5---5---|    |
G|---2--2--| |---2--2--| |---2--2--| |---2--2---| |---2---2--|    |
D|0--------| |---------| |---------| |0---------| |2 --------|    |
A|---------| |3--------| |1--------| |----------| |----------|    *


                           *SOLO*
E|----------| |---------| |---------| |----------| |----------|
B|----------| |---------| |---------| |----------| |-9^-----8-|
G|----------| |------7-7| |-9-10-7--| |-9-10-9---| |----------|
D|3-5-5/7---| |---------| |---------| |----------| |----------|
A|----------| |---------| |---------| |----------| |----------|
E|----------| |---------| |---------| |----------| |----------|


                           *RHYTHM*
     Dm         Dm7          Dm6          A4           A'
E|-1--1--1-| |-1--1--1-| |-1--1--1-| |-0--0---0-| |-5---5--5-|
B|--3--3---| |--3--3---| |--3--3---| |--3--3----| |--5---5---|
G|---2--2--| |---2--2--| |---2--2--| |---2--2---| |---2---2--|
D|0--------| |---------| |---------| |0---------| |2 --------|
A|---------| |3--------| |1--------| |----------| |----------|


                            *SOLO*
E|----------| |---------| |---------| |----------| |----------|
B|-5-6-3----| |5-6--3--5| |6--3-----| |----------| |----------|
G|-------2--| |---------| |-----2--0| |----------| |----------|
D|----------| |---------| |---------| |2-3--5----| |-5/7--5--3|
A|----------| |---------| |---------| |----------| |----------|
E|----------| |---------| |---------| |----------| |----------|


                           *RHYTHM*
     Dm         Dm7          Dm6          A4           A'
E|-1--1--1-| |-1--1--1-| |-1--1--1-| |-0--0---0-| |-5---5--5-|
B|--3--3---| |--3--3---| |--3--3---| |--3--3----| |--5---5---|
G|---2--2--| |---2--2--| |---2--2--| |---2--2---| |---2---2--|
D|0--------| |---------| |---------| |0---------| |2 --------|
A|---------| |3--------| |1--------| |----------| |----------|



                            *SOLO*
E|----------| |---------| |---------| |----------| |----------|
B|----------| |---3-----| |-3-5---6-| |-8---9/10-| |----------|
G|----------| |-2---2---| |---------| |----------| |----------|
D|----------| |---------| |---------| |----------| |----------|
A|-7---0----| |---------| |---------| |----------| |----------|
E|----------| |---------| |---------| |----------| |----------|


                           *RHYTHM*
     Dm         Dm7          Dm6          A4           A'
E|-1--1--1-| |-1--1--1-| |-1--1--1-| |-0--0---0-| |-5---5--5-|
B|--3--3---| |--3--3---| |--3--3---| |--3--3----| |--5---5---|
G|---2--2--| |---2--2--| |---2--2--| |---2--2---| |---2---2--|
D|0--------| |---------| |---------| |0---------| |2 --------|
A|---------| |3--------| |1--------| |----------| |----------|





Verse 1:





    Dm                     C           A Major     Dm
E|-1--1--1--1---1--1-| |-0--0--0-| |-0--0---0-| |-1--1--1-|
B|--3--3-----3---3---| |--1--1---| |--2--2----| |--3--3---|
G|---2--2-----2---2--| |---0--0--| |---2--2---| |---2--2--|
D|0--------0---------| |---------| |2---------| |0--------|
A|-------------------| |3--------| |----------| |---------|
E|-------------------| |---------| |----------| |---------|
Let me take you far away.. you'd like a holiday .


    Dm                     C           A Major     Dm
E|-1--1--1--1---1--1-| |-0--0--0-| |-0--0---0-| |-1--1--1-|
B|--3--3-----3---3---| |--1--1---| |--2--2----| |--3--3---|
G|---2--2-----2---2--| |---0--0--| |---2--2---| |---2--2--|
D|0--------0---------| |---------| |2---------| |0--------|
A|-------------------| |3--------| |----------| |---------|
E|-------------------| |---------| |----------| |---------|
Let me take you far away.. you'd like a holiday .



    Dm                     C            Dm
E|-1--1--1-----------| |-0--0--0-| |-1--1--1-|
B|--3--3-------------| |--1--1---| |--3--3---|
G|---2--2------------| |---0--0--| |---2--2--|
D|0------------------| |---------| |0--------|
A|-------------------| |3--------| |---------|
E|-------------------| |---------| |---------|
Exchange  The Cold Days For The Sun


    G                     C       
E|--3--3--3--3--3--3-| |-0--0--0---0--0--0|
B|---0--0-----0--0---| |--1--1------1--1--|
G|----0--0-----0--0--| |---0--0------0--0-|
D|-------------------| |------------------|
A|-------------------| |3---------3-------|
E|-3--------3--------| |------------------|
Good Times And Fun

[ Tab from: http://www.guitaretab.com/s/scorpions/219412.html ]
    Dm                     C           A Major     Dm
E|-1--1--1--1---1--1-| |-0--0--0-| |-0--0---0-| |-1--1--1-|
B|--3--3-----3---3---| |--1--1---| |--2--2----| |--3--3---|
G|---2--2-----2---2--| |---0--0--| |---2--2---| |---2--2--|
D|0--------0---------| |---------| |2---------| |0--------|
A|-------------------| |3--------| |----------| |---------|
E|-------------------| |---------| |----------| |---------|
Let me take you far away.. you'd like a holiday .



                   *Rhythm Under Solo*
     Dm         Dm7          Dm6          A4           A'
E|-1--1--1-| |-1--1--1-| |-1--1--1-| |-0--0---0-| |-5---5--5-|
B|--3--3---| |--3--3---| |--3--3---| |--3--3----| |--5---5---|
G|---2--2--| |---2--2--| |---2--2--| |---2--2---| |---2---2--|
D|0--------| |---------| |---------| |0---------| |2 --------|
A|---------| |3--------| |1--------| |----------| |----------|






Verse 2:



    Dm                     C           A Major     Dm
E|-1--1--1--1---1--1-| |-0--0--0-| |-0--0---0-| |-1--1--1-|
B|--3--3-----3---3---| |--1--1---| |--2--2----| |--3--3---|
G|---2--2-----2---2--| |---0--0--| |---2--2---| |---2--2--|
D|0--------0---------| |---------| |2---------| |0--------|
A|-------------------| |3--------| |----------| |---------|
E|-------------------| |---------| |----------| |---------|
Let me take you far away.. you'd like a holiday .


    Dm                     C           A Major     Dm
E|-1--1--1--1---1--1-| |-0--0--0-| |-0--0---0-| |-1--1--1-|
B|--3--3-----3---3---| |--1--1---| |--2--2----| |--3--3---|
G|---2--2-----2---2--| |---0--0--| |---2--2---| |---2--2--|
D|0--------0---------| |---------| |2---------| |0--------|
A|-------------------| |3--------| |----------| |---------|
E|-------------------| |---------| |----------| |---------|
Let me take you far away.. you'd like a holiday .



    Dm                     C            Dm
E|-1--1--1-----------| |-0--0--0-| |-1--1--1-|
B|--3--3-------------| |--1--1---| |--3--3---|
G|---2--2------------| |---0--0--| |---2--2--|
D|0------------------| |---------| |0--------|
A|-------------------| |3--------| |---------|
E|-------------------| |---------| |---------|
Exchange your troubles for some love.


    G                     C       
E|--3--3--3--3--3--3-| |-0--0--0---0--0--0|
B|---0--0-----0--0---| |--1--1------1--1--|
G|----0--0-----0--0--| |---0--0------0--0-|
D|-------------------| |------------------|
A|-------------------| |3---------3-------|
E|-3--------3--------| |------------------|
Wherever you are.


    Dm                     C           A Major     Dm
E|-1--1--1--1---1--1-| |-0--0--0-| |-0--0---0-| |-1--1--1-|
B|--3--3-----3---3---| |--1--1---| |--2--2----| |--3--3---|
G|---2--2-----2---2--| |---0--0--| |---2--2---| |---2--2--|
D|0--------0---------| |---------| |2---------| |0--------|
A|-------------------| |3--------| |----------| |---------|
E|-------------------| |---------| |----------| |---------|
Let me take you far away.. you'd like a holiday .



                   *Rhythm Under Solo*
     Dm         Dm7          Dm6          A4           A'
E|-1--1--1-| |-1--1--1-| |-1--1--1-| |-0--0---0-| |-5---5--5-| |
B|--3--3---| |--3--3---| |--3--3---| |--3--3----| |--5---5---| |
G|---2--2--| |---2--2--| |---2--2--| |---2--2---| |---2---2--| X3
D|0--------| |---------| |---------| |0---------| |2 --------| |
A|---------| |3--------| |1--------| |----------| |----------| |



verse 3:

(Strum The Chords)

Dm                   Dm
Longing for the sun you will come
       C              Bb
To the island without name
                Dm
Longing for the sun be welcome
       C           Bb              Dm
On the island many miles away from home
                  C              Bb
Be welcome on the island without name
                Dm
Longing for the sun you will come
       C           Bb              Dm   C  Bb
To the island many miles away from home.


                               *SOLO*
e:------------------------------------------------------5---3---------------|
B:--------------------------------3-3--5-6-3---5-6-5------------5-6-5--3----|
G:----------2-----------------2-------------------------------------------2-|
D:-----3---------5-2---5--3-5-----------------------------------------------|
A:5-------------------------------------------------------------------------|
E:--------------------------------------------------------------------------|

          
e:---------------------------------------------------------------3-4b(5)Sus-|
B:5-6-3-5---6-5-3------------------------------------3----3-5-6-------------|
G:----------------2-------------1/2--------1/2-----2---2--------------------|
D:---------------------2-3-5---------5--3-----------------------------------|
A:----------------------------------------------5---------------------------|
E:--------------------------------------------------------------------------|



                      *Rhythm Under Solo*
                (Repeat Until End Of The Song)

     Dm         Dm7          Dm6          A4           A'
E|-1--1--1-| |-1--1--1-| |-1--1--1-| |-0--0---0-| |-5---5--5-|
B|--3--3---| |--3--3---| |--3--3---| |--3--3----| |--5---5---|
G|---2--2--| |---2--2--| |---2--2--| |---2--2---| |---2---2--|
D|0--------| |---------| |---------| |0---------| |2 --------|
A|---------| |3--------| |1--------| |----------| |----------|




Chord fingerings:

   EADGbe      EADGbe      EADGbe      EADGbe       EADGbe       EADGbe
Dm X00231    C X32010   A  002220   G  320003   Dm7 X30231   Dm6 X10231

   EADGbe      EADGbe      EADGbe   
A4 002230   A' 002255   Bb 113331

Related for Holiday tab
Holiday chords by Scorpions