Song name
# A B C D E F G H I J K L M N O P Q R S T U V W X Y Z

Scorpions - Rock You Like A Hurricane tab

Scorpions Rock you like a hurricane solo 100% correct
user: Mariusrocker15

Key:


h = hammer on
t= tapping
ph = pinch harmonics /Artificial harmonics
x// or \\ = pick scrape
~~~ = vibrato
P.M = palm mute
/ = slide






(Guitar 1)
 [  ~~~~~~~~~~~~~~~~~~~~~~~~~~~~~~~~~~~~~~
E[-12-12--15-17fb17fb17-15------------------|
B[-15b15b-----------------------------------|
G[-------------------------14---------b-----|
D[------------------------------------------|
A[------------------------------------------|
E[------------------------------------------|


 Guitar solo:

 
(Guitar 1)

     h     h     t       h    t      h     t       h    h  pick scrape
E-------------------------------------------------------------------|
B-12-15p12-15p12-17/-12-15p12-17/-12-15p12-17/-12-15p12-15p12-\-\---|
G--------------------------------------------------------------\-\--|
D-------------------------------------------------------------------|
A-------------------------------------------------------------------|
E-------------------------------------------------------------------|

 [----------PM----------]                        ph~~~~ph~~~~
E---------------------------------1010-1212-1515-17fb---------------|
B----------88-1010-1212-1010-1212----------------------15fb--15brp--|
G----77-99----------------------------------------------------------|
D-99----------------------------------------------------------------|
A-------------------------------------------------------------------|
E-------------------------------------------------------------------|


E-12--------------------------------------------------------|
B----15b-12----------14br---------14br--------14br----------|
G-----------14-12----14br14p12----14br4p12----14br14p12-----|
D-----------------14-----------14----------14-----------14--|
A-----------------------------------------------------------|
E-----------------------------------------------------------|

  (Guitar 1)
               ph~~~
E[--------------------------------------------------------|
B[--------------------------------------------------------|
G[----------------------7-9p7------9-11p9--------12-14p12-|
D[-------------12----/9-------9/11--------11-/14----------|
A[-10-11-12-13--------------------------------------------|
E[--------------------------------------------------------|



E------------------12--------15-17p15----/22--|
B-----12-15p12-/12----15-/17----------17/-----|
G-/12-----------------------------------------|
D---------------------------------------------|
A---------------------------------------------|
E---------------------------------------------|

   ~~~~~~~~~~~~~~~                        ~~~~~~~~~~~~~~~~~
E----22--------------------------------------22-22fb--------|
B-22fb--22fb--22br\-----------12-15/17-19/22fb--------------|
G-----------------------12-14-------------------------------|
D--------------------14-------------------------------------|
A-----------------------------------------------------------|
E-----------------------------------------------------------|


                                          ~~~~~~~~~~~~~~~~~~~~~~~
E----------------17-------------17-19-20-22fb--22fb--22b22fb-----|
B----------15-------17-17-19-20----------------------------------|
G-12-14-12----12-------------------------------------------------|
D----------------------------------------------------------------|
A----------------------------------------------------------------|
E----------------------------------------------------------------|

                              h             h
E-19-22-19\17-19-17\15\14-17-19p17\15\14----------------|
B----------------------------------------11-12p11-------|
G-------------------------------------------------12----|
D----------------------------------------------------14-|
A-------------------------------------------------------|
E-------------------------------------------------------|

                                 phphphph  phphphphphph ph ph ph ~~~~~~~~~
E-------------------------------------------------------------------------|
B-12p11-12p11-------12-11----------------------------------------7b-------|
G-------------12----------12-------0-2-2brp0-2p0---0-2--3--4--5--7b-------|
D----------------14----------14--2---------------2------------------------|
A-------------------------------------------------------------------------|
E-------------------------------------------------------------------------|
Tap to rate this tab
# A B C D E F G H I J K L M N O P Q R S T U V W X Y Z