Song name
# A B C D E F G H I J K L M N O P Q R S T U V W X Y Z

Scorpions - Rock You Like A Hurricance tab

Intro
    Moderate Rock Q=124
   4/4
    Gtr I
||----------------|---------------||
||o---------------|--------------o||
||--9-9-9\--------|------5--7-7---||
||--9-9-9\---5-5--|-7-7--5--7-7---||
||o-7-7-7\---5-5--|-7-7--3--5-5--o||
||-----------3-3--|-5-5-----------||


  Gtr II
|----------------------------------------------|
|----------------------------------------------|
|----------------------------------------------|
|-14-14-14-14-14--14-14-(14)-14-14-14-14-14-14-|
|----------------------------------------------|
|----------------------------------------------|
|
| Gtr I
|----------------------------------------------|
|----------------------------------------------|
|--9-----9-----9\------------------------------|
|--9-----9-----9\----------------5--5----------|
|--7-----7-----7\----------------5--5----------|
|--------------------------------3--3----------|


|---------------------------------------------|
|---------------------------------------------|
|---------------------------------------------|
|-14-14-14-14-14-14-14-(14)-14-14-14-14-14-14-|
|---------------------------------------------|
|---------------------------------------------|
|
|---------------------------------------------|
|---------------------------------------------|
|-----------------5-------------7--7----------|
|--7-----7--------5-------------7--7----------|
|--7-----7--------3-------------5--5----------|
|--5-----5------------------------------------|


  Gtr III
|----------------------------------------------|
|----------------------------------------------|
|-16-16-16-16-16--16-16-(16)-16-16-16-16-16-16-|
|----------------------------------------------|
|----------------------------------------------|
|----------------------------------------------|
|
| Gtr II
|----------------------------------------------|
|----------------------------------------------|
|----------------------------------------------|
|-14-14-14-14-14--14-14-(14)-14-14-14-14-14-14-|
|----------------------------------------------|
|----------------------------------------------|
|
| Gtr I
|----------------------------------------------|
|----------------------------------------------|
|--9-----9-----9\------------------------------|
|--9-----9-----9\----------------5--5----------|
|--7-----7-----7\----------------5--5----------|
|--------------------------------3--3----------|


|-------------------------------------------------|
|-------------------------------------------------|
|-16-16-16-16-16-16-16-14h16p14-------------------|
|-------------------------------17-16-14----------|
|----------------------------------------17-15-14-|
|-------------------------------------------------|
|
|-------------------------------------------------|
|-------------------------------------------------|
|----------------------11h12p11-------------------|
|-14-14-14-14-14-14-14----------14-12-------------|
|-------------------------------------14-13-12----|
|----------------------------------------------15-|
|
|-------------------------------------------------|
|-------------------------------------------------|
|-----------------5--------------7-----7----------|
|--7-----7--------5--------------7-----7----------|
|--7-----7--------3--------------5-----5----------|
|--5-----5----------------------------------------|


                          ~~~~~~~~~~~~~~~~
|------------15-------------------|----------/19-(19)-17h19p17s15----|
|-15b17-(15)-----15b17==(15)------|-(15)r-------------------------19-|
|---------------------------------|----------------------------------|
|---------------------------------|----------------------------------|
|---------------------------------|----------------------------------|
|---------------------------------|----------------------------------|
|
|                         ~~~~~~~~~~~~~~~~
|---------------------------------|----------/15-(15)-14h15p14s12----|
|------------15-------------------|-------------------------------15-|
|-14b16-(14)-----14b16==(14)------|-(14)r----------------------------|
|---------------------------------|----------------------------------|
|---------------------------------|----------------------------------|
|---------------------------------|----------------------------------|
|
|---------------------------------|----------------------------------|
|---------------------------------|----------------------------------|
|--9------9---9\------------------|------------5-------7--------7----|
|--9------9---9\-------------5-5--|---7---7----5-------7--------7----|
|--7------7---7\-------------5-5--|---7---7----3-------5--------5----|
|----------------------------3-3--|---5---5--------------------------|


                         ~~~~                             ~~
|------------19------------------|---22b24==(22)r(22)p19-22------|
|-19b20-(19)-----19b20-(19)------|-------------------------------|
|--------------------------------|-------------------------------|
|--------------------------------|-------------------------------|
|--------------------------------|-------------------------------|
|--------------------------------|-------------------------------|
|
|                        ~~~~                             ~~
|------------15------------------|---17b19==(17)r(17)p15-17------|
|-15b17-(15)-----15b17-(15)------|-------------------------------|
|--------------------------------|-------------------------------|
|--------------------------------|-------------------------------|
|--------------------------------|-------------------------------|
|--------------------------------|-------------------------------|
|
|--------------------------------|-------------------------------|
|--------------------------------|-------------------------------|
|--9------9---9\-----------------|-----------------5--------7-7--|
|--9------9---9\------------5-5--|-7--7------------5--------7-7--|
|--7------7---7\------------5-5--|-7--7------------3--------5-5--|
|---------------------------3-3--|-5--5--------------------------|


  Gtrs II, III
|-22b24---22b24--22b24-22b24==(22)r(22)-19-|
|------------------------------------------|
|------------------------------------------|
|------------------------------------------|
|------------------------------------------|
|------------------------------------------|
|
| Gtr I
|------------------------------------------|
|------------------------------------------|
|--9----9--9\------------------------------|
|--9----9--9\-----------5-------5----------|
|--7----7--7\-----------5-------5----------|
|-----------------------3-------3----------|


|-22-20-19-17-20-19-17-------19h20p19-17-------22\-12-|
|----------------------20-19-------------20-19--------|
|-----------------------------------------------------|
|-----------------------------------------------------|
|-----------------------------------------------------|
|-----------------------------------------------------|
|
|-----------------------------------------------------|
|-----------------------------------------------------|
|--------------------5-----------------7--------7-----|
|--7-----7-----------5-----------------7--------7-----|
|--7-----7-----------3-----------------5--------5-----|
|--5-----5--------------------------------------------|


|-------12--------------12-------12-------12-------12-------12-------12-|
|-15b17----15b17==(15)r----15b17----15b17----15b17----15b17----15b17----|
|-----------------------------------------------------------------------|
|-----------------------------------------------------------------------|
|-----------------------------------------------------------------------|
|-----------------------------------------------------------------------|
|
|-----------------------------------------------------------------------|
|-----------------------------------------------------------------------|
|--9-----9----------9\--------------------------------------------------|
|--9-----9----------9\------------------------5--------5----------------|
|--7-----7----------7\------------------------5--------5----------------|
|---------------------------------------------3--------3----------------|


|-17-12-----------------------------------------|
|-------15-12-----------------------------------|
|-------------15-12-12--------------------------|
|----------------------14-12-12-----------------|
|-------------------------------14-13-----------|
|-------------------------------------15\-------|
|
|-----------------------------------------------|
|-----------------------------------------------|
|-----------------------------5-----------7-7---|
|--7--------7-----------------5-----------7-7---|
|--7--------7-----------------3-----------5-5---|
|--5--------5-----------------------------------|


               1st Verse
  Gtr I
                PM------------------------------|
|------------||-----------------|-----------------|
|------------||-----------------|-----------------|
|-(7)--------||-5-5-5-9-9-9-9-9-|-5-5-5-9-9-7-7-7-|
|-(7)--------||-5-5-5-9-9-9-9-9-|-5-5-5-9-9-7-7-7-|
|-(5)--------||-3-3-3-7-7-7-7-7-|-3-3-3-7-7-5-5-5-|
|------------||-----------------|-----------------|


  Gtr II
|-----------------|-----------------------|
|-----------------|-------------------<5>-|
|-----------------|---------------<7>-----|
|-----------------|-----------<7>---------|
|-----------------|-----------------------|
|-----------------|-----------------------|
|
| Gtr I
| PM----------------------------------|
|-----------------|-----------------------|
|-----------------|-----------------------|
|-5-5-5-9-9-9-9-9-|-5-5-5-7-7--7---7---7--|
|-5-5-5-9-9-9-9-9-|-5-5-5-7-7--7---7---7--|
|-3-3-3-7-7-7-7-7-|-3-3-3-5-5--5---5---5--|
|-----------------|-----------------------|


                     >
  ~~~~~~~~~~~~~~~~~~~~~~
|-0---------------|-(0)---------------|
|-----------------|-------------------|
|-----------------|-------------------|
|-----------------|-------------------|
|-----------------|-------------------|
|-----------------|-------------------|
|
| PM--------------------------------|
|-----------------|-------------------|
|-----------------|-------------------|
|-5-5-5-9-9-9-9-9-|--5--5-5-9-9-7-7-7-|
|-5-5-5-9-9-9-9-9-|--5--5-5-9-9-7-7-7-|
|-3-3-3-7-7-7-7-7-|--3--3-3-7-7-5-5-5-|
|-----------------|-------------------|


  Gtr I
  PM------------------------------------------------|
|-----------------|-----------------|-----------------|
|-----------------|-----------------|-----------------|
|-5-5-5-9-9-9-9-9-|-5-5-5-7-7-7-7-7-|-5-5-5-9-9-9-9-9-|
|-5-5-5-9-9-9-9-9-|-5-5-5-7-7-7-7-7-|-5-5-5-9-9-9-9-9-|
|-3-3-3-7-7-7-7-7-|-3-3-3-5-5-5-5-5-|-3-3-3-7-7-7-7-7-|
|-----------------|-----------------|-----------------|


  PM------------------------------------------------|
|-----------------|-----------------|-----------------|
|-----------------|-----------------|-----------------|
|-5-5-5-9-9-7-7-7-|-5-5-5-9-9-9-9-9-|-5-5-5-7-7-7-7-7-|
|-5-5-5-9-9-7-7-7-|-5-5-5-9-9-9-9-9-|-5-5-5-7-7-7-7-7-|
|-3-3-3-7-7-5-5-5-|-3-3-3-7-7-7-7-7-|-3-3-3-5-5-5-5-5-|
|-----------------|-----------------|-----------------|


  PM------------------------------------------------|
|-----------------|-----------------|-----------------|
|-----------------|-----------------|-----------------|
|-5-5-5-9-9-9-9-9-|-5-5-5-9-9-7-7-7-|-5-5-5-9-9-9-9-9-|
|-5-5-5-9-9-9-9-9-|-5-5-5-9-9-7-7-7-|-5-5-5-9-9-9-9-9-|
|-3-3-3-7-7-7-7-7-|-3-3-3-7-7-5-5-5-|-3-3-3-7-7-7-7-7-|
|-----------------|-----------------|-----------------|


                               2/4
  PM--|
|----------------|------------|--------|
|----------------|------------|--------|
|-5-5-5-7-(7)----|-(7)--------|-(7)----|
|-5-5-5-7-(7)----|-(7)--------|-(7)----|
|-3-3-3-5-(5)----|-(5)--------|-(5)----|
|----------------|------------|--------|


 Chorus
 4/4
|---------------|--------------|----------------|
|---------------|--------------|----------------|
|-9-9-9\--------|------5--7-7--|-9-9-9\---------|
|-9-9-9\---5-5--|-7-7--5--7-7--|-9-9-9\---5-5---|
|-7-7-7\---5-5--|-7-7--3--5-5--|-7-7-7\---5-5---|
|----------3-3--|-5-5----------|----------3-3---|


|--------------|---------------|--------------|---------------|
|--------------|---------------|--------------|---------------|
|------5--7-7--|-9-9-9\--------|------5--7-7--|-9-9-9\--------|
|-7-7--5--7-7--|-9-9-9\---5-5--|-7-7--5--7-7--|-9-9-9\---5-5--|
|-7-7--3--5-5--|-7-7-7\---5-5--|-7-7--3--5-5--|-7-7-7\---5-5--|
|-5-5----------|----------3-3--|-5-5----------|----------3-3--|


                              2nd Verse
                               PM------------|
|--------------|------------||-----------------|
|--------------|------------||-----------------|
|------5--7-7--|-(7)--------||-5-5-5-9-9-9-9-9-|
|-7-7--5--7-7--|-(7)--------||-5-5-5-9-9-9-9-9-|
|-7-7--3--5-5--|-(5)--------||-3-3-3-7-7-7-7-7-|
|-5-5----------|------------||-----------------|


  PM------------------------------------------------|
|-----------------|-----------------|-----------------|
|-----------------|-----------------|-----------------|
|-5-5-5-9-9-7-7-7-|-5-5-5-9-9-9-9-9-|-5-5-5-7-7-7-7-7-|
|-5-5-5-9-9-7-7-7-|-5-5-5-9-9-9-9-9-|-5-5-5-7-7-7-7-7-|
|-3-3-3-7-7-5-5-5-|-3-3-3-7-7-7-7-7-|-3-3-3-5-5-5-5-5-|
|-----------------|-----------------|-----------------|


  PM------------------------------------------------|
|-----------------|-----------------|-----------------|
|-----------------|-----------------|-----------------|
|-5-5-5-9-9-9-9-9-|-5-5-5-9-9-7-7-7-|-5-5-5-9-9-9-9-9-|
|-5-5-5-9-9-9-9-9-|-5-5-5-9-9-7-7-7-|-5-5-5-9-9-9-9-9-|
|-3-3-3-7-7-7-7-7-|-3-3-3-7-7-5-5-5-|-3-3-3-7-7-7-7-7-|
|-----------------|-----------------|-----------------|


  PM-------------------------------------------------------|
|-------------------|----------------------|-------------------|
|-------------------|----------------------|-------------------|
|-5-5-5-7-7-7-7-7---|-5-5-5-9--9---9-9-9---|-5-5-5-9-9-7-7-7---|
|-5-5-5-7-7-7-7-7---|-5-5-5-9--9---9-9-9---|-5-5-5-9-9-7-7-7---|
|-3-3-3-5-5-5-5-5---|-3-3-3-7--7---7-7-7---|-3-3-3-7-7-5-5-5---|
|-------------------|----------------------|-------------------|
|
| Gtrs II, III
|-------------------|----------------------|-------------------|
|-------------------|----------------------|-------8---7-------|
|-------------------|-------9-(9)\---------|-------7---7-------|
|-------------------|-------9-(9)\---------|-------7---7-------|
|-------------------|-------7-(7)\---------|-------------------|
|---------------5-7-|-8-8--------------5-7-|-8-8-----------5-7-|


  PM-------------------------------------------------------------|
|----------------------|----------------------|----------------------|
|----------------------|----------------------|----------------------|
|-5-5-5-9--9---9-9-9---|-5-5-5-7--7---7-7-7---|-5-5-5-9--9---9-9-9---|
|-5-5-5-9--9---9-9-9---|-5-5-5-7--7---7-7-7---|-5-5-5-9--9---9-9-9---|
|-3-3-3-7--7---7-7-7---|-3-3-3-5--5---5-5-5---|-3-3-3-7--7---7-7-7---|
|----------------------|----------------------|----------------------|
|
|----------------------|----------------------|----------------------|
|----------------------|----------------------|----------------------|
|-------9-(9)\---------|-------7-(7)\---------|-------9-(9)\---------|
|-------9-(9)\---------|-------7-(7)\---------|-------9-(9)\---------|
|-------7-(7)\---------|-------5-(5)\---------|-------7-(7)\---------|
|-8-8--------------5-7-|-8-8--------------5-7-|-8-8--------------5-7-|


  PM-----------------------------------|
|-------------------|----------------------|
|-------------------|----------------------|
|-5-5-5-9-9-7-7-7---|-5-5-5-9--9---9-9-9---|
|-5-5-5-9-9-7-7-7---|-5-5-5-9--9---9-9-9---|
|-3-3-3-7-7-5-5-5---|-3-3-3-7--7---7-7-7---|
|-------------------|----------------------|
|
|-------------------|----------------------|
|-------8---7-------|----------------------|
|-------7---7-------|-------9-(9)\---------|
|-------7---7-------|-------9-(9)\---------|
|-------------------|-------7-(7)\---------|
|-8-8-----------5-7-|-8-8--------------5-7-|


                                             2/4
  Gtr II
                    ~~~~~
|----------------|--------------------------|------------------------||
|----------------|-15b17-----15pb17--15pb17-|-----15pb17-15pb17r(15)-||
|-------7-(7)----|--------------------------|------------------------||
|-------7-(7)----|--------------------------|------------------------||
|-------5-(5)----|--------------------------|------------------------||
|-8-8------------|--------------------------|------------------------||
|
| Gtr III
|----------------|--------------------------|------------------------||
|----------------|--------------------------|------------------------||
|-------7-(7)----|-(7)----------------------|-(7)--------------------||
|-------7-(7)----|-(7)----------------------|-(7)--------------------||
|-------5-(5)----|-(5)----------------------|-(5)--------------------||
|-8-8------------|--------------------------|------------------------||
|
| Gtr I
| PM--|
|----------------|--------------------------|------------------------||
|----------------|--------------------------|------------------------||
|-5-5-5-7-(7)----|-(7)----------------------|-(7)--------------------||
|-5-5-5-7-(7)----|-(7)----------------------|-(7)--------------------||
|-3-3-3-5-(5)----|-(5)----------------------|-(5)--------------------||
|----------------|--------------------------|------------------------||


 2nd Chorus
 4/4
  Gtr I
|-------------------------|--------------|----------------|
|-------------------------|--------------|----------------|
|--9-----9-9\-------------|------5--7-7--|-9-9-9\---------|
|--9-----9-9\--------5-5--|-7-7--5--7-7--|-9-9-9\---5-5---|
|--7-----7-7\--------5-5--|-7-7--3--5-5--|-7-7-7\---5-5---|
|--------------------3-3--|-5-5----------|----------3-3---|
|
| Gtr II
|  ~~~~~~
|-------------------------|--------------|----------------|
|-15b17========(15)r------|--------------|----------------|
|-------------------------|--------------|----------------|
|-------------------------|--------------|----------------|
|-------------------------|--------------|----------------|
|-------------------------|--------------|----------------|


|--------------|---------------|--------------|
|--------------|---------------|--------------|
|------5--7-7--|-9-9-9\--------|------5--7-7--|
|-7-7--5--7-7--|-9-9-9\---5-5--|-7-7--5--7-7--|
|-7-7--3--5-5--|-7-7-7\---5-5--|-7-7--3--5-5--|
|-5-5----------|----------3-3--|-5-5----------|


|---------------|--------------|-----------------------------|
|---------------|--------------|-----------------------------|
|-9-9-9\--------|------5--7-7--|-9-9--9\---------------------|
|-9-9-9\---5-5--|-7-7--5--7-7--|-9-9--9\-----------5---5-----|
|-7-7-7\---5-5--|-7-7--3--5-5--|-7-7--7\-----------5---5-----|
|----------3-3--|-5-5----------|-------------------3---3-----|
|
| Gtr II
|---------------|--------------|-----12-----12-------(12)\---|
|---------------|--------------|-----15b17--15b17====(15)r\--|
|---------------|--------------|-----------------------------|
|---------------|--------------|-----------------------------|
|---------------|--------------|-----------------------------|
|---------------|--------------|-----------------------------|


|--------------|-----------------------------|--------------|
|--------------|-----------------------------|--------------|
|------5--7-7--|-9-9--9\---------------------|------5--7-7--|
|-7-7--5--7-7--|-9-9--9\-----------5---5-----|-7-7--5--7-7--|
|-7-7--3--5-5--|-7-7--7\-----------5---5-----|-7-7--3--5-5--|
|-5-5----------|-------------------3---3-----|-5-5----------|
|
|--------------|-----12-----12-------(12)\---|--------------|
|--------------|-----15b17--15b17====(15)r\--|--------------|
|--------------|-----------------------------|--------------|
|--------------|-----------------------------|--------------|
|--------------|-----------------------------|--------------|
|--------------|-----------------------------|--------------|


|-----------------------------|--------------|-----------------------------|
|-----------------------------|--------------|-----------------------------|
|-9-9--9\---------------------|------5--7-7--|-9-9--9\---------------------|
|-9-9--9\-----------5---5-----|-7-7--5--7-7--|-9-9--9\-----------5---5-----|
|-7-7--7\-----------5---5-----|-7-7--3--5-5--|-7-7--7\-----------5---5-----|
|-------------------3---3-----|-5-5----------|-------------------3---3-----|
|
|-----12-----12-------(12)\---|--------------|-----12-----12-------(12)\---|
|-----15b17--15b17====(15)r\--|--------------|-----15b17--15b17====(15)r\--|
|-----------------------------|--------------|-----------------------------|
|-----------------------------|--------------|-----------------------------|
|-----------------------------|--------------|-----------------------------|
|-----------------------------|--------------|-----------------------------|


  Gtr II
                  ~~~~~~~~~~~~~
|--------------|-12------(12)----17b19-17b19r(17)----|------------------------||
|--------------|-15b17===(15)r-----------------------|------------------------||
|--------------|---------------0------------------14-|-(14)b16------(14)-(14)-||
|--------------|-------------------------------------|------------------------||
|--------------|-------------------------------------|------------------------||
|--------------|-------------------------------------|------------------------||
|
| Gtr I
|--------------|-------------------------------------|------------------------||
|--------------|-------------------------------------|------------------------||
|------5--7--9-|--9--------------(9)---------------7-|--(7)-------------------||
|-7-7--5--7--9-|--9--------------(9)---------------7-|--(7)-------------------||
|-7-7--3--5--7-|--7--------------(7)---------------5-|--(5)-------------------||
|-5-5----------|-------------------------------------|------------------------||


 Guitar Solo
|--------------------15/--------15/--------15/-------------|
|-12h15p12h15p12h15-(15)-12h15-(15)-12h15-(15)-15p12h15p12-|
|----------------------------------------------------------|
|----------------------------------------------------------|
|----------------------------------------------------------|
|----------------------------------------------------------|
|
|----------------------------------------------------------|
|----------------------------------------------------------|
|--9--------9---------9\-----------------------------------|
|--9--------9---------9\----------------5-------5----------|
|--7--------7---------7\----------------5-------5----------|
|---------------------------------------3-------3----------|


|-------15--(15)\----------------------|
|-15-12--------------------------------|
|--------------------------------------|
|--------------------------12-12-14-14-|
|--------x\---x\-----14-14-------------|
|--------x\---x\-----------------------|
|
|--------------------------------------|
|--------------------------------------|
|-----------------5---7-----7----------|
|--7-----7--------5---7-----7----------|
|--7-----7--------3---5-----5----------|
|--5-----5-----------------------------|


|--------------------------------------------15-15-|
|-------------12--12-------------15-15-17-17-------|
|-12-12-14-14--------14-14-16-16-------------------|
|--------------------------------------------------|
|--------------------------------------------------|
|--------------------------------------------------|
|
|--------------------------------------------------|
|--------------------------------------------------|
|--9-----9-----9\----------------------------------|
|--9-----9-----9\-----------------5-----5----------|
|--7-----7-----7\-----------------5-----5----------|
|---------------------------------3-----3----------|


|-[17]b19==(17)r(17)b19-(17)--------------------12----------------------------|
|----------------------------[15]b17-(15)-15b17----15-12----------------------|
|--------------------------------------------------------14-14b16r(14)p12-----|
|-------------------------------------------------------------------------14--|
|-----------------------------------------------------------------------------|
|-----------------------------------------------------------------------------| |
|-----------------------------------------------------------------------------|
|-----------------------------------------------------------------------------|
|--------------------------------------5------------7--------7----------------|
|---7-------------7--------------------5------------7--------7----------------|
|---7-------------7--------------------3------------5--------5----------------|
|---5-------------5-----------------------------------------------------------|


|--------------------------------------------------------------------|
|-14b15==(14)r(14)-12-----14b15==(14)r(14)-12----14b15==(14)r(14)-12-|
|-14b15==(14)r(14)-12-----14b15==(14)r(14)-12----14b15==(14)r(14)-12-|
|---------------------14----------------------14---------------------|
|--------------------------------------------------------------------|
|--------------------------------------------------------------------|
|
|--------------------------------------------------------------------|
|--------------------------------------------------------------------|
|--9------------9------9\--------------------------------------------|
|--9------------9------9\----------------------5--5------------------|
|--7------------7------7\----------------------5--5------------------|
|----------------------------------------------3--3------------------|


                    ~~~
|-----------------------|
|-----------------------|
|----0----1---2--3-[4]--|
|-14--------------------|
|-----------------------|
|-----------------------|
|
|-----------------------|
|-----------------------|
|-----------5----7--7---|
|--7---7----5----7--7---|
|--7---7----3----5--5---|
|--5---5----------------|


|------------------------------------------------------|
|---------------------------------------------12-15p12-|
|----7h9p7-------9h11p9-------12h14p12----/12----------|
|-/9-------9s11---------11s14----------13--------------|
|------------------------------------------------------|
|------------------------------------------------------|
|
|------------------------------------------------------|
|------------------------------------------------------|
|--9---9------9\---------------------------------------|
|--9---9------9\------------------5---------5----------|
|--7---7------7\------------------5---------5----------|
|---------------------------------3---------3----------|


|--------------------------------------------19h22p19-|
|-----15h17p15-----17h20p17-----20h22p20-/20----------|
|-/16----------/19----------/21-----------------------|
|-----------------------------------------------------|
|-----------------------------------------------------|
|-----------------------------------------------------|
|
|-----------------------------------------------------|
|-----------------------------------------------------|
|----------------------5------------7------7----------|
|---7-----7------------5------------7------7----------|
|---7-----7------------3------------5------5----------|
|---5-----5-------------------------------------------|


                  ~~~~~~~~~~~~
|------------22--------------------------|
|-22b24-(22)-----22b24==(22)r-----22b24==|
|----------------------------------------|
|----------------------------------------|
|----------------------------------------|
|----------------------------------------|
|
|----------------------------------------|
|----------------------------------------|
|--9------9---9\-------------------------|
|--9------9---9\--------------5-5--------|
|--7------7---7\--------------5-5--------|
|-----------------------------3-3--------|


                                                                 ~~~~
|-----------------------------------------|---------22--22b24==(22)-----(22)r-|
|-(22)r\----------------------------20-22-|-22b24-----------------------------|
|--------------------------19-20-21-------|-----------------------------------|
|-----------------19-20-21----------------|-----------------------------------|
|-----------19-22-------------------------|-----------------------------------|
|-----------------------------------------|-----------------------------------|
|
|-----------------------------------------|-----------------------------------|
|-----------------------------------------|-----------------------------------|
|------------5-----------7-----7----------|--9----9--9\-----------------------|
|---7----7---5-----------7-----7----------|--9----9--9\-------------5-5-------|
|---7----7---3-----------5-----5----------|--7----7--7\-------------5-5-------|
|---5----5--------------------------------|-------------------------3-3-------|


|--------------------------------------19-20-22-|
|------------------22-(22)----19-20-22----------|
|------------19------------21-------------------|
|-17-19---17----19------------------------------|
|-----------------------------------------------|
|-----------------------------------------------|
|
|-----------------------------------------------|
|-----------------------------------------------|
|----------------5-------------7-----7----------|
|--7----7--------5-------------7-----7----------|
|--7----7--------3-------------5-----5----------|
|--5----5---------------------------------------|


|-22b24-(22)---22b24--22b24-22b24r(22)-19-|
|-----------------------------------------|
|-----------------------------------------|
|-----------------------------------------|
|-----------------------------------------|
|-----------------------------------------|
|
|-----------------------------------------|
|-----------------------------------------|
|--9---------9--9\------------------------|
|--9---------9--9\-----------5------5-----|
|--7---------7--7\-----------5------5-----|
|----------------------------3------3-----|


|-22-20-19-17-20-19-17-------19h20p19-17-------------------|
|----------------------20-19-------------20----------------|
|-------------------------------------------16p15h16-14----|
|-------------------------------------------------------17-|
|----------------------------------------------------------|
|----------------------------------------------------------|
|
|----------------------------------------------------------|
|----------------------------------------------------------|
|--------------------5-----------------7-----7-------------|
|--7-----7-----------5-----------------7-----7-------------|
|--7-----7-----------3-----------------5-----5-------------|
|--5-----5-------------------------------------------------|


|--------------------------------------------|
|--------------------------------------------|
|----16p15-16p14--------15h16-14-------------|
|-14--------------17-14----------17-14-----5-|
|----------------------------------------7---|
|--------------------------------------------|
|
|--------------------------------------------|
|--------------------------------------------|
|--9-----9-----9\----------------------------|
|--9-----9-----9\-----------------5----5-----|
|--7-----7-----7\-----------------5----5-----|
|---------------------------------3----3-----|


|------------------------------|---------------||
|------------------------------|-7b8------(7)--||
|------------------------------|-7b8------(7)--||
|-7-8-7h8p7-5---5-7-(7)-8-9-10-|---------------||
|-------------7----------------|---------------||
|------------------------------|---------------||
|
|------------------------------|---------------||
|------------------------------|---------------||
|---------------5-------7----9-|-9-------------||
|-7---7---------5-------7----9-|-9-------------||
|-7---7---------3-------5----7-|-7-------------||
|-5---5------------------------|---------------||


 3rd Vs(ALL GTRS TACET)
|-----|
|-----|
|-----|
|-----|
|-----|
|-----|


  Gtr I
              PM-----------------------------------|
|-----------|----------------------|--------------------|
|-----------|----------------------|--------------------|
|-----------|-5-5-5-9--9---9-9-9---|-5-5-5-9-9-7-7-7----|
|-----------|-5-5-5-9--9---9-9-9---|-5-5-5-9-9-7-7-7----|
|-----------|-3-3-3-7--7---7-7-7---|-3-3-3-7-7-5-5-5----|
|-----------|----------------------|--------------------|
|
| Gtrs II, III
|-----------|----------------------|--------------------|
|-----------|----------------------|-------8---7--------|
|------7--7-|-------9-(9)\---------|-------7---7--------|
|------7--7-|-------9-(9)\---------|-------7---7--------|
|------5--5-|-------7-(7)\---------|--------------------|
|-----------|-8-8--------------5-7-|-8-8-----------5-7--|


  PM-------------------------------------------------------------|
|----------------------|----------------------|----------------------|
|----------------------|----------------------|----------------------|
|-5-5-5-9--9---9-9-9---|-5-5-5-7--7---7-7-7---|-5-5-5-9--9---9-9-9---|
|-5-5-5-9--9---9-9-9---|-5-5-5-7--7---7-7-7---|-5-5-5-9--9---9-9-9---|
|-3-3-3-7--7---7-7-7---|-3-3-3-5--5---5-5-5---|-3-3-3-7--7---7-7-7---|
|----------------------|----------------------|----------------------|
|
|----------------------|----------------------|----------------------|
|----------------------|----------------------|----------------------|
|-------9-(9)\---------|-------7-(7)\---------|-------9-(9)\---------|
|-------9-(9)\---------|-------7-(7)\---------|-------9-(9)\---------|
|-------7-(7)\---------|-------5-(5)\---------|-------7-(7)\---------|
|-8-8--------------5-7-|-8-8--------------5-7-|-8-8--------------5-7-|


  PM-----------------------------------|
|-------------------|----------------------|
|-------------------|----------------------|
|-5-5-5-9-9-7-7-7---|-5-5-5-9--9---9-9-9---|
|-5-5-5-9-9-7-7-7---|-5-5-5-9--9---9-9-9---|
|-3-3-3-7-7-5-5-5---|-3-3-3-7--7---7-7-7---|
|-------------------|----------------------|
|
|-------------------|----------------------|
|-------8---7-------|----------------------|
|-------7---7-------|-------9-(9)\---------|
|-------7---7-------|-------9-(9)\---------|
|-------------------|-------7-(7)\---------|
|-8-8-----------5-7-|-8-8--------------5-7-|


                               2/4
  PM--|
|----------------|------------|--------||
|----------------|------------|--------||
|-5-5-5-7-(7)----|-(7)--------|-(7)----||
|-5-5-5-7-(7)----|-(7)--------|-(7)----||
|-3-3-3-5-(5)----|-(5)--------|-(5)----||
|----------------|------------|--------||
|
|----------------|------------|--------||
|----------------|------------|--------||
|-------7-(7)----|-(7)--------|-(7)----||
|-------7-(7)----|-(7)--------|-(7)----||
|-------5-(5)----|-(5)--------|-(5)----||
|-8-8------------|------------|--------||


 Outro-Chorus
 4/4
|---------------|--------------|------------------------------|
|---------------|--------------|------------------------------|
|-9-9-9\--------|------5--7-7--|-9-9--9\----------------------|
|-9-9-9\---5-5--|-7-7--5--7-7--|-9-9--9\-----------5---5------|
|-7-7-7\---5-5--|-7-7--3--5-5--|-7-7--7\-----------5---5------|
|----------3-3--|-5-5----------|-------------------3---3------|
|
| Gtr II
|---------------|--------------|-----12-----12-------(12)\----|
|---------------|--------------|-----15b17--15b17====(15)r\---|
|---------------|--------------|------------------------------|
|---------------|--------------|------------------------------|
|---------------|--------------|------------------------------|
|---------------|--------------|------------------------------|


|--------------|-----------------------------|--------------|
|--------------|-----------------------------|--------------|
|------5--7-7--|-9-9--9\---------------------|------5--7-7--|
|-7-7--5--7-7--|-9-9--9\-----------5---5-----|-7-7--5--7-7--|
|-7-7--3--5-5--|-7-7--7\-----------5---5-----|-7-7--3--5-5--|
|-5-5----------|-------------------3---3-----|-5-5----------|
|
|--------------|-----12-----12-------(12)\---|--------------|
|--------------|-----15b17--15b17====(15)r\--|--------------|
|--------------|-----------------------------|--------------|
|--------------|-----------------------------|--------------|
|--------------|-----------------------------|--------------|
|--------------|-----------------------------|--------------|


|-----------------------------|---------------------------|
|-----------------------------|---------------------------|
|-9-9--9\---------------------|-----------5-------7-7-----|
|-9-9--9\-----------5---5-----|-7-7-------5-------7-7-----|
|-7-7--7\-----------5---5-----|-7-7-------3-------5-5-----|
|-------------------3---3-----|-5-5-----------------------|
|
|-----12-----12-------(12)\---|---------------------------|
|-----15b17--15b17====(15)r\--|---------------------------|
|-----------------------------|---------------------7-[9]-|
|-----------------------------|-------------------7-------|
|-----------------------------|-------------7-(7)---------|
|-----------------------------|-5-5-8-(8)-8---------------|


|----------------------------------------------|
|----------------------------------------------|
|--9-----9-----9\------------------------------|
|--9-----9-----9\----------------5--5----------|
|--7-----7-----7\----------------5--5----------|
|--------------------------------3--3----------|
|
|----------------------------------------------|
|----------------------------------------------|
|----------------------------------------------|
|-14-14-14-14-14--14-14-(14)-14-14-14-14-14-14-|
|----------------------------------------------|
|----------------------------------------------|


|--------------------------------------------------|
|--------------------------------------------------|
|-----------------5-------------7-----7------------|
|--7-----7--------5-------------7-----7------------|
|--7-----7--------3-------------5-----5------------|
|--5-----5-----------------------------------------|
|
|--------------------------------------------------|
|--------------------------------------------------|
|------------------------------------14b16r(14)p12-|
|-14-14-14-14-14-14-14-(14)-14-14-14---------------|
|--------------------------------------------------|
|--------------------------------------------------|


|----------------------------------------------|
|----------------------------------------------|
|--9-----9-----9\------------------------------|
|--9-----9-----9\----------------5--5----------|
|--7-----7-----7\----------------5--5----------|
|--------------------------------3--3----------|
|
|----------------------------------------------|
|----------------------------------------------|
|----------------------------------------------|
|-14-14-14-14-14--14-14-(14)-14-14-14-14-14-14-|
|----------------------------------------------|
|----------------------------------------------|


|-----------------------------------------------------------------|
|-----------------------------------------------------------------|
|-----------------------5-----------------7--------7--------------|
|--7-----7--------------5-----------------7--------7--------------|
|--7-----7--------------3-----------------5--------5--------------|
|--5-----5--------------------------------------------------------|
|
|-------12-------------12-------------12----------12--------------|
|----------15p12----------15p12----------15p12-------15-12--------|
|-14b16----------14b16----------14b16----------14----------14b16--|
|-----------------------------------------------------------------|
|-----------------------------------------------------------------|
|-----------------------------------------------------------------|


|---------------------------------------|------------------------------|
|---------------------------------------|------------------------------|
|-9-----9--9\---------------------------|---------5---7-----7----------|
|-9-----9--9\------------5------5-------|-7--7----5---7-----7----------|
|-7-----7--7\------------5------5-------|-7--7----3---5-----5----------|
|------------------------3------3-------|-5--5-------------------------|
|
|                                         ~~~~~~~~
|---------12/--------------12/----------|------------------------------|
|---12-15-----12-15--15-12-----12-15-12-|------------------------------|
|---------------------------------------|------------------------------|
|---------------------------------------|------------------12-12-14-14-|
|---------------------------------------|-x\---x\----14-14-------------|
|---------------------------------------|-x\---x\----------------------|


|--------------------------------------------------|
|--------------------------------------------------|
|--9-----9-----9\----------------------------------|
|--9-----9-----9\-----------------5-----5----------|
|--7-----7-----7\-----------------5-----5----------|
|---------------------------------3-----3----------|
|
|--------------------------------------12-12-15-15-|
|-------------12--12-------12-12-15-15-------------|
|-12-12-14-14--------14-14-------------------------|
|--------------------------------------------------|
|--------------------------------------------------|
|--------------------------------------------------|


|----------------------------------------------------------------|------------*|
|----------------------------------------------------------------|------------*|
|----------------------------------5---------7--------7----------|--9--9--9---*|
|--7------------7------------------5---------7--------7----------|--9--9--9---*|
|--7------------7------------------3---------5--------5----------|--7--7--7---*|
|--5------------5------------------------------------------------|------------*|
|
|-17b19=3D=3D(17)r(17)b19-(17)------------12---------------------|------------*|
|--------------------------15b17-(15)----15-12-------------------|------------*|
|----------------------------------------------15-14-12----------|------------*|
|-------------------------------------------------------14-12----|-14-14-14---*|
|-------------------------------------------------------------14-|-14-14-14---*|
|----------------------------------------------------------------|-12-12-12---*|


Enjoy your time ;)
Tap to rate this tab
# A B C D E F G H I J K L M N O P Q R S T U V W X Y Z