Scorpions - Wind Of Change tab

wind of change solo (sin errores)
por emmanuel chavez email chavez.lamborghini@live.com.mx

e---------------------------------------------------|
b---10-12-12br---10-12-12brbrB----12----13-12h13p12-|
g-9------------9---------------14----12-------------|
d---------------------------------------------------|
a---------------------------------------------------|
e---------------------------------------------------|

e------------------------------------------------------------------|
b---------------------------------------10-11-12brbrbr-15-12br-15--|B
g-12b-12-9-12-12b-12-9-10-12----9-7h9p7----------------------------|
d----------------------------10------------------------------------|
a------------------------------------------------------------------|
e------------------------------------------------------------------|

e-17-15----13-12h13p12--------------------------------------|
b-------12---------------------------------------------15br-|
g-----------------------------------------------------------|
d----------------------7-7-10-9-9-10-12-14-12-14/12-15------|
a-----------------------------------------------------------|
e-----------------------------------------------------------|

e-----19B-17-19-22--|B
b-19B---------------|
g-------------------|
d-------------------|
a-------------------|
e-------------------|

porfavor comentar/please comment
Tap to rate this tab
 
# A B C D E F G H I J K L M N O P Q R S T U V W X Y Z