Song name
# A B C D E F G H I J K L M N O P Q R S T U V W X Y Z

Scorpions - Where The River Flows tab


NOTES:
GUITAR SOLO FROM WHERE THE RIVER FLOWS ,SONG FROM  THE ALBUM "PURE INSTINCT"
PH MEANS PENCH HARMONICS AND I MARKED WHICH NOTES ARE PLAYED
H MEANS HOLD BENDED NOTE
PLEASE LISTEN TO THE SONG TO GET THE RIGHT TIMING
ALL COMMENTS WELCOMED. PLEASE RATE TAB . THANKS .

          ph--        ph           ph-----------------------------------|
E:----------------------------------------------------------------------|
B:----------------------------------------------------------------------|
G:---------4-5-0---------------------4-5-7-7b(9)r7-5-7------------------|
D:------7--------------7~~--------7----------------------7~~------------|
A:---7------------7------------7----------------------------------------|
E:----------------------------------------------------------------------|



                         PH          PH         PH              PH
E:--5----------------------------------------------------------------------|
B:----8-8b(10)~--6--5------------------------------------------------------|
G:--------------------7-5-7b(9)r7-5--7b(9)r7-5--7b(9)r7-5------------------|
D:---------------------------------------------------------7-5-------------|
A:--------------------------------------------------------------5~-3--5~~--|
E:-------------------------------------------------------------------------|

                                   H-------------------------------------|  PH with ph through out
E:-----------------------------15----------------------------------------|
B:--------13----------13b(15)------15hb(17)-15(17)-15(17)-15(17)-15(17)--|
G:--12/14----14-12-14----------------------------------------------------|
D:-----------------------------------------------------------------------|
A:-----------------------------------------------------------------------|
E:-----------------------------------------------------------------------|



E:---------------------------------------------------------------------|
B:--15(17)r15-13-15~~~-13-15-15b(17)-15b(17)r15-13---------10-----8----|
G:-------------------------------------------------14~---9----9/7---7--|
D:---------------------------------------------------------------------|
A:---------------------------------------------------------------------|
E:---------------------------------------------------------------------|




                                                 ph        ph
E:---------------------5------------------------------------------------|
B:------------------8~---8-8b(10)~~--6-5--------------------------------|
G:--5-7b(9)r7-5-7-5-----------------------7-5-7b(9)r7-5--7b(9)r7-5------|
D:----------------------------------------------------------------------|
A:----------------------------------------------------------------------|
E:----------------------------------------------------------------------|


      ph
E:---------------------------|
B:---------------------------|
G:-7b(9)r7-5-----------------|
D:------------7-5------------|
A:------------------5~-3~----|
E:---------------------------|
Tap to rate this tab
 
# A B C D E F G H I J K L M N O P Q R S T U V W X Y Z