Scorpions - Sting In The Tail tab

(intro w/ wha-wha)
E|-------------------------------------------------------------------------|
B|-------------5555~---------------5/888~~---------------------------------|
G|44/555-5--44--------44/555~--44------------------------------------------|X2
D|-------------------------------------------------------------------------|
A|-------------------------------------------------------------------------|
E|-------------------------------------------------------------------------|

E|-------------------------------------------------------------------------|
B|-------------------------------------------------------------------------|
G|-------------------------------------------------------------------------|
D|-----555555555555555555555555555555555-----------------------------------|
A|-----555555555555555555555555555555555-----------------------------------|
E|-----333333333333333333333333333333333-----------------------------------|




E|-----------------------------|-------------------------------------------|
B|-----------------------------|-------------------------------------------|
G|-----2~-x2-------x-----------|-2~-x2-------X-----------------------------|
D|-----2~-x2-------x-53x5h7----|-2~-x2-------X-53X5h7----------------------|
A|-----0--x0--3p03-x-33x5------|-0--x0--3p03-X-33X5------------------------|
E|-----------------------------|-------------------------------------------|
Tap to rate this tab
 
# A B C D E F G H I J K L M N O P Q R S T U V W X Y Z