Scorpions - Slave Me tab

------------------------------
* Band : Scorpions           *
* Title : Slave Me           *
* Album : Sting In The Tail  *
* Year : 2010                *
------------------------------
* Tabbed By : Yousif Jamal   *
* Country : IraQ             *
-------------------------------
* Tuning : Standard EADGBe   *
* Difficulty : Easy          *
------------------------------
This Tab Is Only For Rhythm Parts
Lead Guitar Parts Is Not Hard
Just Listen To The Song And You
May Be Able To Play It !


Intro / Verse

e|--------------------|
B|--------------------|
G|--------------------|
D|-7---7---55---7-----|
A|-7---7---55---7-----|
E|-5---5---33---5-----|

Chorus

|-------------------|
|-------------------|
|-------------------|
|-14--12--99--7--5--|
|-14--12--99--7--5--|
|-12--10--77--5--3--|

Bridge
e|--------------------|
B|--------------------|
G|--------------------|
D|-7---7---5---7---7--|
A|-7---7---5---7---7--|
E|-5---5---3---5---5--|

It's Only Power Chords .... Have Fun .... And ROCK ON !



Tap to rate this tab
 
# A B C D E F G H I J K L M N O P Q R S T U V W X Y Z