Song name
# A B C D E F G H I J K L M N O P Q R S T U V W X Y Z

Scorpions - Love Is War chords

Highlighted       Show chord diagrams
-------------------------------------------------------------------------------
			     Love is War - Scorpions
-------------------------------------------------------------------------------
Tabbed by: Zoltar
Email: zolics@yahoo.com

Tuning: Standard


Intro

C#m  Amaj7 C#m Amaj7


C#m   - x 4 6 6 5 4
Amaj7 - 5 x 6 6 5 x



Verse

C#m C#m B B F#m F#m C#m C#m
C#m C#m B B F#m F#m

Bridge 1.

------------------------------------|
------------------------------------|
------------------------------------|
-2---4---4---6---6------------------|
-0---1---2---3---4------------------|
------------------------------------|

Chorus

C#5  E5  A5

-----------------------------------------|
-----------------------------------------|
-----------------------------------------|
-----------------------------------------|
-------------4-4-4-4----4-4-4-4--4-4-----|
-------------0-2-2-2----0-2-2-2--0-2-----|



Bridge 2.

A C#m B F#m A E A F#m B
Tap to rate this tab
 
# A B C D E F G H I J K L M N O P Q R S T U V W X Y Z