Song name
# A B C D E F G H I J K L M N O P Q R S T U V W X Y Z

Scorpions - Far Away tab

Tabbed by:Lady Starlight
Email:
solo 1
Tuning:half step down

e|------------5------------------8b-8-5----------------------8---------------|
B|----------5----8-------------5--------5p8--------------5-8b--8b-8-5--------|
G|----7b-7b--------7b-7-5-5h7~--------------8-5p7---------------------5h7s9--|
D|---5------------------------------------------------5~---------------------|
A|5-7----------------------------------------------7~------------------------|
E|---------------------------------------------------------------------------|

e|-------------------8-10b-10-8hp10-7-8-7---------------15---------15b-15----|
B|8---------------10----------------------10-8-8h10~-15b--15b-15-13----------|
G|-9s7-5-5h7~-7s9------------------------------------------------------------|
D|---------------------------------------------------------------------------|
A|---------------------------------------------------------------------------|
E|---------------------------------------------------------------------------|

e|12-15-12-17b-17b-17-15-17-15b------------5---8b-8-5------5-----------------|
B|------------------------------17-17~-3s5---5-----------5-------8-----------|
G|----------------------------------------------------7b------7s9--9s7-5-----|
D|---------------------------------------------------------------------------|
A|---------------------------------------------------------------------------|
E|---------------------------------------------------------------------------|

e|-----------5---------------------------------------------------------------|
B|---------5---5p8-----------------------------------------------------------|
G|5h7-5-7b---------5p8-5p7-5p7---7b-7---7-7-------5-------5-7b-5-------------|
D|-----------------------------7-------------5------7-5-7--------------------|
A|---------------------------------------------7-----------------------------|
E|---------------------------------------------------------------------------|
Tap to rate this tab
 
# A B C D E F G H I J K L M N O P Q R S T U V W X Y Z