Song name
# A B C D E F G H I J K L M N O P Q R S T U V W X Y Z

Scorpions - Always Somewhere tab

SCORPIONS - Always Somewhere (solo)


Key:

^  - bend
^^ - full bend
h  - hammer on
p  - pull off
r  - release bend
/  - slide down
\  - slide up
~  - vibrato
() - finger tap



Interlude:


e|--15p13-12~----13p12---------------------------|
B|---------------------15~----10-12-13--12-10~---|
G|-----------------------------------------------|
D|-----------------------------------------------|
A|-----------------------------------------------|
E|-----------------------------------------------|



e|--15p13-12~----13p12--------15^^--15^^-13--12h13-12~----|
B|---------------------12~--------------------------------|
G|--------------------------------------------------------|
D|--------------------------------------------------------|
A|--------------------------------------------------------|
E|--------------------------------------------------------|




Guitar Tabs by rizalwahap
Tap to rate this tab
# A B C D E F G H I J K L M N O P Q R S T U V W X Y Z