Song name
# A B C D E F G H I J K L M N O P Q R S T U V W X Y Z

Scorpions - Taxman Woman tab

Author: wowstormman67
E-mail: mtv6310@gmail.com

Artist:  Scorpions
Song:    Taxman Woman
Album:   Face The Heat

Sat down and tried to play this by ear and it worked out pretty well. I'm not sure if
it's the right way to play it, but it sounds pretty close to the original in my opinion.
Most of the mini-solo-thing is accurate except for that last part of it. Can't really 
hear how to play it.

No solo tabbed as I am not that good a guitarist (1 years of playing), but hopefully
some of you can give me some feedback on this. Also this is my first tab.


Tuning:  E Standard (EADGBe)

(h): hammer-on  (p): pull-off  (\): slide down  (/): slide up (~): let ring
(v): vibrato  (*): Mute (By lifting fingers slightly) (pm): palm mute

Each section resembles 16 16th notes (Not good at all this in English, but I hope you
know what I mean, and I hope that you can decode it :-))

Intro 1
e|----------------------------------------|
B|----------------------------------------|
G|----------------------------------------|
D|----------------------------------------|
A|--0-12-0-10-0-9-10-1010p9\7-7-9-10-9-5--|
E|----------------------------------------|


e|----------------------------------------|
B|----------------------------------------|
G|----------------------------------------|
D|----------------------------------12-7--|
A|--0-12-0-10-0-9-10-1010p9\7-7-9-10------|
E|----------------------------------------|

Intro 2
e|----------------------------------------|
B|----------------------------------------|
G|----------------------------------------|
D|----------------------------------------|
A|--0-12-0-10-0-9-10vvvvvvvvvvvvvvvvvvvv--|
E|----------------------------------------|


e|----------------------------------------|
B|----------------------------------------|
G|----------------------------------------|
D|--------------12-7vvvvvvvvvvvvvvvvvvvv--|
A|--0-12-0-10-0---------------------------|
E|----------------------------------------|



Verse
e|----------------------------------------|
B|----------------------------------------|
G|----------------------------------------|
D|~~~~~~~~~~~~~~~~~~~~~~~~~~~~~~~~~~~~~~--| <-- Let the 7th note ring
A|----------------------------------------|
E|----------------------------------------|

e|----------------------------------------| This is chicken picked
B|--1010--8-8---7-7--8--------------------|
G|--9-9---7-7---6-6--5--------------------|
D|--7-7---5-5---4-4--5--------------------|
A|----------------------------------------|
E|----------------------------------------|
  ---*-*---*-*---*-*----------------------| <-- Mute by loosing the tension on strings

Bridge (??)
e|----------------------------------------|
B|----------------------------------------|
G|----------------------------------------|
D|--5\3~~~~~~~~~~~~~~5\3~~~~~~~~~~~~~~~~--|
A|--5\3~~~~~~~~~~~~~~5\3~~~~~~~~~~~~~~~~--|
E|--3\1~~~~~~~~~~~~~~3\1~~~~~~~~~~~~~~~~--|

e|----------------------------------------|
B|----------------------------------------|
G|----------------------------------------|
D|--5/7~~~~~~~~\pm------------------------|
A|--5/7~~~~~~~~\pm------------------------|
E|--3/5~~~~~~~~\pm------------------------|


Chorus
e|----------------------------|
B|----------------------------|
G|--7--7--7-7-7--10-10-101010-|
D|--7--7--7-7-7--10-10-101010-|
A|--5--5--5-5-5--8--8--8-8-8--|
E|----------------------------|
  ---*--*----------*--*-------| <-- Mute by loosing the tension on strings

e|----------------------------|
B|----------------------------|
G|----------------------------|
D|--10-10-101010-8--8--8-8-8--|
A|--10-10-101010-8--8--8-8-8--|
E|--8--8--8-8-8--6--6--6-6-6--|
  ---*--*----------*--*-------| <-- Mute by loosing the tension on strings

e|----------------------------|
B|----------------------------|
G|--7--7--7-7-7--10-10-101010-|
D|--7--7--7-7-7--10-10-101010-|
A|--5--5--5-5-5--8--8--8-8-8--|
E|----------------------------|
  ---*--*----------*--*-------| <-- Mute by loosing the tension on strings

e|----------------------------|
B|----------------------------|
G|----------------------------|
D|--10-10-101010-8~~~~~~~~~~--|
A|--10-10-101010-8~~~~~~~~~~--|
E|--8--8--8-8-8--6~~~~~~~~~~--|
  ---*--*----------*--*-------| <-- Mute by loosing the tension on strings

Mini-Solo-Riff
e|-----------------------------------------------|
B|-----------------------------------------------|
G|-----------------------------------------------|
D|-----------------------------------------------|
A|--3p0-0-0-0-0-3p0-0-0-0-0-3p0-0-0-0-0-3p0-3-5--|
E|-----------------------------------------------|






Song Order:

Intro 1   x2
Verse     x1
Intro 1   x1
Verse     x1
Intro 1   x1
Bridge    x2
Chorus    x1
Intro 1   x2
Chorus    x2
Bridge    x2
Chorus    x4
Intro 2   x2
Mini-solo x4
Bridge    x2
Chorus    x8
Tap to rate this tab
# A B C D E F G H I J K L M N O P Q R S T U V W X Y Z