Song name
# A B C D E F G H I J K L M N O P Q R S T U V W X Y Z

Scorpions - Yellow Raven chords

Highlighted       Show chord diagrams
Am               Dm
The yellow raven-sipped the air
Dm                E
Of thunder and of-rain ...
Am               Dm
The yellow raven-sipped the air
Am                      E
Gentle eyes kissing the-rain ...

E            Dm             Am
Where do you-go, fantastic-dreambird?
Dm              Am
Take me away to-somewhere
F                 E
Take me away from-here!
E            Dm            Am
Where do you-go, fantastic-dreambird?
Dm           Am
Answer to my-yearning
F                 E
Take me away from-here!



The firebird began to cry
When the music died away ...
The firebird began to cry
And smoke was slowly drifting by ...

Where do you go, fantastic dreambird?
Take me away to somewhere
Take me away from here!
Where do you go, fantastic dreambird?
Answer to my yearning
Take me away from here ...

SOLO:


E||----------------------------------------||
B||----------------------------------------||
G||----------------------------------------||
D||-5----0-2-3--3-5-3-2--------------------||
A||--5-5----------------0--0-0-3-5--5-7-5-3||
E||3--6------------------------------------||


E||----------------------------------------||
B||----------------------------------------||
G||----------------------------------------||
D||------------------2-3-2-3-2-3-----------||
A||----------------------------------------||
E||5--5-3-1--1-1-1-0-----------------------||

                  (x2)




e||----------------------------------------||
B||----------------------------------------||
G||----------------------------------------||
D||-5----0-2-3--3-5-3-2--------------------||
A||--5-5----------------0--0-0-3-5--5-7-5-3||
E||3--6------------------------------------||


e||----------------------------------------||
B||----------------------------------------||
G||----------------------------------------||
D||------------------2-3-6-7-6-2-----------||
A||----------------------------------------||
E||5--5-3-1--1-1-1-0-----------------------||

                   (x2)
Tap to rate this tab
# A B C D E F G H I J K L M N O P Q R S T U V W X Y Z