Song name
# A B C D E F G H I J K L M N O P Q R S T U V W X Y Z

Scorpions - Fly To The Rainbow tab

Author/Artist: SCORPIONS
Title: fly to the rainbow (Music :Michael Schenker /Lyrics:Ulrich Roth)
Album: fly to the rainbow
Transcribed by: Jonas Aklestad



INTRO (RIFF 0): classical guitar, finger picking
--0h2------2--0--------3--------2---------------------------------------------|
-----3----------2---2----3---3----3---3--------3-------------5----------------|
-------2----------2--------0--------2--------3---3---------5---5--------------|
---0-------0--------------------0----------3-------3-----5-------5------------|
--------------4--------2-----------------1-------------3----------------------|
------------------------------------------------------------------------------|
  D           A/C#     G/B      D        Bb            C

-2-----3------2-----2---------------------------------------------------------|
---3-----3------3-----3-------------------------------------------------------|
-----2-----2------2-----2-----------------------------------------------------|
-0-----0------0-----0---------------------------------------------------------|
------------------------------------------------------------------------------|
------------------------------------------------------------------------------|
 D

RIFF 1 (verse, 2 times) "Life is empty, can't remember...."

---------2-----------0------------3-------------------------------------------|
-------3---3-------2---2--------3---3----------2------------3-----------5-----|
-----2-------2---2-------2----0-------0------2---2--------3---3--------5--5---|
---0---------------------------------------2-------2----3-------3----5------5-|
---------------4------------2------------0------------1-------------3---------|
------------------------------------------------------------------------------|
  D            A/C#         G/B          A            Bb            C

-2-----3-----2----2-----------------------------------------------------------|
---3-----3----3-----3---------------------------------------------------------|
-----2-----2----2-----2-------------------------------------------------------|
-0-----0-----0----0-----------------------------------------------------------|
------------------------------------------------------------------------------|
------------------------------------------------------------------------------|
 D


RIFF 2 "Gliding through this life..."

----------------------------------------------------|-------------------------|
---------1------------0-----------3-----------3-----|-------1------------0----|
-------0---0--------0---0-------3---3-------3---3---|-----0---0--------0--0---|
-----2-------2----0-------0---0-------0---0-------0-|---2-------2----0------0-|
---3------------2-----------1-----------1-----------|-3------------2----------|
----------------------------------------------------|-------------------------|
   C            G/B         Bb                        C            G/B

-----------------------------|------------------------------------------------|
----------3-----------3------|-------1-----------0-----------1----------3-----|
--------3---3-------3---3----|-----0---0-------0---0-------0---0------3--3----|
------0-------0---0-------0--|---2-------2---0-------0---2-------2--0------0--|
----1-----------1------------|-3-----------2-----------3-----------1----------|
-----------------------------|------------------------------------------------|
    Bb                         C           G/B         C           Bb

---------------------------------------------------|--------------------------|
--------1-----------0-----------1------------2-----|--------------------------|
------0---0-------0---0-------0---0--------2---2---|--------------------------|
----2-------2---0-------0---2-------2----2-------2-|--------------------------|
--3-----------2-----------3------------0-----------|--------------------------|
---------------------------------------------------|--------------------------|
  C           G/B         C            A



RIFF 3 (two times) "Somewhere in the sky..."

--------2------------0-----------3-------------------------2------------0-----|
------3---3--------2---2-------3---3---------2-----------3---3--------2--2----|
----2-------2----2-------2---0-------0-----2---2-------2-------2----2------2--|
--0--------------------------------------2-------2---0------------------------|
---------------4-----------2-----------0--------------------------4-----------|
------------------------------------------------------------------------------|
D              A/C#        G/B         A             D             A/C#

-------3-----------------|---2---0---3----------------------------------------|
-----3---3---------2-----|---3---2---0----2--------------3------------5-------|
---0-------0-----2---2---|---2---2---0----2------------3---3--------5---5-----|
---------------2-------2-|---0------------2----------3-------3----5-------5---|
-2-----------0-----------|-------4---2----0--------1------------3-------------|
-------------------------|-------------------3--2-----------------------------|
 G/B         A               D   A   G    A        Bb           C

-2-----3-----2-----2----------------------------------------------------------|
---3-----3-----3-----3--------------------------------------------------------|
-----2-----2-----2-----2------------------------------------------------------|
-0-----0-----0-----0----------------------------------------------------------|
------------------------------------------------------------------------------|
------------------------------------------------------------------------------|
D

RIFF 4 ( 4 times): distorted guitar
---------------|-----------------------------10--8------------------|
---------------|------------------8--10--12---------12--10--10--10--|
---------------|----------------------------------------------------|
--5--4--2--1-2-|----------------------------------------------------|
---------------|----------------------------------------------------|
---------------|----------------------------------------------------|
                                  Em

-|--------7-------------------------------------------------------------------|
-|-7-8-10---10-7--8-----------------------------------------------------------|
-|----------------------------------------------------------------------------|
-|----------------------------------------------------------------------------|
-|----------------------------------------------------------------------------|
-|----------------------------------------------------------------------------|
   D



Em             D                 G   F#  G   F#   Em
Rain in the sky , make the world fly,
       D                  Em
Into time, beg me your time.
Em            D                  G   F#  G   F#   Em
Sun in the sky, make the world fly,
         D                Em
Into time, beg me your time.

(repeat 2 times)


RIFF 5 (4 times)
-----------------------------------------------|------------------------------|
----------------------10b12--10--8--10----8--7-|--10--8--7--8--7--------------|
-----------------------------------------------|------------------9-----------|
-----------------------------------------------|------------------------------|
-----------------------------------------------|------------------------------|
-----------------------------------------------|------------------------------|
                      Em                           D


Em             D                  G   F#  G   F#   Em
Rain in the sky , make the world fly,
       D                   Em
Into time, beg me your time.
Em            D                   G   F#  G   F#   Em
Sun in the sky, make the world fly,
         D                 Em
Into time, beg me your time.

(repeat 2 times)


CHORDS UNDER FINAL PART (RIFF 6) : Em   /   Bm   /   Am   /  Em  (repeat more times)


FINAL RIFF ( RIFF 7) repeat more times :

------------------------------------------------------------------------------|
------------------------------------------------------------------------------|
------------------------------------------------------------------------------|
--2------2--4--5---4------------4--5--7-----7--5--4--5------------------------|
------------------------2-----------------------------------------------------|
------------------------------------------------------------------------------|
  Em               Bm                 Am             Em




SONG STRUCTURE:

riff 0

riff 1
Life is empty, can't remember anytime before,
On a plain lit cold December, see it evermore,

riff 2
Gliding through this life, and another is a child,
and we're doing games, and losing things,
Always playing gigs.

riff 3
Somewhere in the sky, where the moon the stars shine bright,
Where the sun is shining, in the night.
I am in disgrace, yet i see a smiling face,
and i hope you let me, share your place.

I don't live today.

riff 4 (4 times)



Em             D                   G   F#  G   F#   Em
Rain in the sky , make the world fly,
       D                 Em
Into time, beg me your time.
Em            D                 G   F#  G   F#   Em
Sun in the sky, make the world fly,
         D                Em
Into time, beg me your time.


Em             D                   G   F#  G   F#   Em
Rain in the sky , make the world fly,
       D                 Em
Into time, beg me your time.
Em            D                 G   F#  G   F#   Em
Sun in the sky, make the world fly,
         D                Em
Into time, beg me your time.



riff 5 (4 times)



Em             D                   G   F#  G   F#   Em
Rain in the sky , make the world fly,
       D                 Em
Into time, beg me your time.
Em            D                 G   F#  G   F#   Em
Sun in the sky, make the world fly,
         D                Em
Into time, beg me your time.


Em             D                   G   F#  G   F#   Em
Rain in the sky , make the world fly,
       D                 Em
Into time, beg me your time.
Em            D                 G   F#  G   F#   Em
Sun in the sky, make the world fly,
         D                Em
Into time, beg me your time.



riff 6
I lived in magic solitude,
With cloudy looking mountains,
The lake made out of crystal raindrops.
Run through space, 2000 years ago,
I've seen the giant city of Atlantis,
sinking into an eternal wave of darkness.
Shhh.

Somewhere in the blue distance,
Are those long forgotten trees of gold
Broken lives hidden down in the sand
Darkness everywhere, nothing
Symbols, strange symbols on a cold leaf
Painting torrid colours all sky green.
Candle painted white like the moon,
Faraway children bleed, God save them.
Drifting garish ghosts like shadows.
Save break to catch and kill time.
Echoes one round endless meadow.
Sublime.



riff 7 (fade out)





That's all folks!
Tap to rate this tab
# A B C D E F G H I J K L M N O P Q R S T U V W X Y Z