Song name
# A B C D E F G H I J K L M N O P Q R S T U V W X Y Z

Scorpions - Love Is The Answer tab

Scorpions - Love is the answer (Album: MTV Unplugged)

Tabbed by: Alan Göser


Note: It´s not a 100% correct tab, but for me it sounds good!! Enjoy!



Tuning  D G C F A D


   Intro / Interlude

Solo 1:
e|------------------------------------------------------------------------------|
B|-----2--4--5~---5--4--2--4~-----9~--9--7--5--7~-----5~--5--4--2--4~-------2~--|
G|---2-------------------------------------------------------------------2------|
D|------------------------------------------------------------------------------|
A|------------------------------------------------------------------------------|
E|------------------------------------------------------------------------------|



Solo 2:
e|------------------------------------------------------------------------------|
B|----10-12-13~---13-12-10-12~---17~17-15-13-15~---13~13-12-10-12~---10~--------|
G|--9--------------------------------------------------------------9------------|
D|------------------------------------------------------------------------------|
A|------------------------------------------------------------------------------|
E|------------------------------------------------------------------------------|



Am         G
All of my life,
   C            Dm
I asked what I have to try,
Am              G                 Am
to get out of darkness, into the light.


Am              G
The world is a mess.
C       Dm
Money it's a plague,
Am        G                  Am
eats our soul and leaves us alone.


Solo -2-

Am        G
I wanna know.
C          Dm
Somebody has to know,
Am          G         Am
where do we go from here?


Am              G
The world is a mess.
C     Dm
Ego it's a waste,
Am          G                  Am
steals our soul and leaves us alone.


C H O R U S:

Am   C          G    Dm        Am
     Love, she said, Love, she said,
     Am                         G                    Am
     love it's the answer but I never would see you again!

Am   C          G    Dm        Am
    Love, she said, Love, she said,
     Am                           G                   Am
    love it's the answer but you never would see me again!


Solo 1 + 2:


C H O R U S:

Am   C          G    Dm        Am
     Love, she said, Love, she said,
     Am                         G                    Am
     love it's the answer but I never would see you again!

Am   C          G    Dm        Am
    Love, she said, Love, she said,
     Am                           G                   Am
    love it's the answer but you never would see me again!


          Am                         G               Am
.........love it's the answer but, maybe, I see you again!
Tap to rate this tab
# A B C D E F G H I J K L M N O P Q R S T U V W X Y Z