Song name
# A B C D E F G H I J K L M N O P Q R S T U V W X Y Z

Scorpions - Ten Light Years Away tab

This Tab Is Sent By John-Paul Jalwan (Lebanon)

Artist: SCORPIONS
Subject: 10 Light Years Away
	 From The Album "Eye To Eye" (1999)


Intro 1:

D#|--0--0-0-----0--0----2-2-3-3-2-3-2------------------2-2-3-2-3-2-3-2---------------|
Bb|---------3-3-----------------------5---3-3-5-5----------------------5-----3-3-5-5-|
F#|----------------------------------------------------------------------------------|
C#|----------------------------------------------------------------------------------|
G#|----------------------------------------------------------------------------------|
D#|----------------------------------------------------------------------------------|


D#|---2-2-3-2-3-2-3-2--------------------------|
Bb|-------------------5-----3--3----3-----3----|
F#|--------------------------------------------|
C#|--------------------------------------------|
G#|--------------------------------------------|
D#|--------------------------------------------|




Intro 2:
       
Play This Part On the 1st type Verse:
 ____________________________________________________
|						     |	
|	[G]     [Em]	[G]	            [Em]     |

  D#||--------------------------------------------||
  Bb||--------------------------------------------||
  F#||--------------------------------------------||
  C#||---------------x--------------------------x-||
  G#||---------2-----x----0h2p0-----------2-----x-||
  D#||-3---3-5---0---x-----------3----3-5---0---x-||



1st Type Verse:

G			    Em
In a run down bed and breakfast
G		Em    G		Em
A room with a view, across the river
G				Em	
I tried to loose the claustrophobia
G		     Em
Opened up and find Utopia


2nd type Verse:

C		    D
There's no more denying
C		D
As my mind go flying



Chorus:

		Em	C	D
10 light years away to save my soul
		Em	C	D
10 light years away to change it all
		Em	C	D
Whatever it may take I gotta try again
	   C	   G	  D
Girl it's time to start over
		Em
10 light years away



1st type Verse:

G			    Em
I'd been watching the reflection
G		    Em    G	    Em
Of a bamboo in the shade, when I saw her
G		     Em	
A very hot day in Havana
G		     Em
In a midnight blue lagoon



2nd type Verse:

C		D
So Shy Yet Exciting
C		D
I Knew She Was Hiding



Chorus:



Em			C	D
10 light years away so take me home
Em			C	  D
10 light years away to change it all
Em			      C	       D
Help me find today It's been way too long
	    C	    G	  D
Girl it's time to start over
		Em
10 light years away




[[[Replay The Intro 1]]]



2nd type Verse:

C		    D
There's no more denying
C		D
As my mind go flying



Chorus:


		Em	C	D
10 light years away to save my soul
		Em	C	D
10 light years away to change it all
		Em	C	D
Whatever it may take I gotta try again
	   C	   G	  D
Girl it's time to start over
		Em
10 light years away


Again:

	
Em			C	D
10 light years away so take me home
Em			C	  D
10 light years away to change it all
Em			      C	       D
Help me find today It's been way too long
	    C	    G	  D
Girl it's time to start over
		Em
10 light years away................
Tap to rate this tab
 
# A B C D E F G H I J K L M N O P Q R S T U V W X Y Z