Song name
# A B C D E F G H I J K L M N O P Q R S T U V W X Y Z

Scorpions - Yellow Raven tab

Yellow Raven end solo

e||----------------------------------------||
B||----------------------------------------||
G||----------------------------------------||
D||-5----0-2-3--3-5-3-2--------------------||
A||--5-5----------------0--0-0-3-5--5-7-5-3||
E||3--6------------------------------------||
 

e||----------------------------------------||
B||----------------------------------------||
G||----------------------------------------||
D||------------------2-3-2-3-2-3-----------||
A||----------------------------------------||
E||5--5-3-1--1-1-1-0-----------------------||
  
Yellow raven

Tap to rate this tab
# A B C D E F G H I J K L M N O P Q R S T U V W X Y Z