Song name
# A B C D E F G H I J K L M N O P Q R S T U V W X Y Z

Scorpions - Dont Stop At The Top tab

Help us improve GuitareTab! Take a short survey!
Don't Stop At The Top


Solo:

    Am  C  G             F            C  H     Am  C      G         D
e|------0------7--0------8--|--7------------|------0------7--0------10--|
 |--10-----10--------10-----|-----10--8-----|--10-----10--------10------|
 |--------------------------|------------9--|---------------------------|
 |--------------------------|---------------|---------------------------|
 |--------------------------|---------------|---------------------------|
E|--------------------------|---------------|---------------------------|

          F   G     Am  C      G         F            C  H
e|--8--7---------|------0------7--0------8--|--7------------|
 |--------10-----|--10-----10--------10-----|-----10--8-----|
 |------------7--|--------------------------|------------9--|
 |---------------|--------------------------|---------------|
 |---------------|--------------------------|---------------|
E|---------------|--------------------------|---------------|

    Am  C  G             D
e|------0------7--0------10(12)--|--10--------------------------------------|
 |--10-----10--------10----------|------13--12--13--10(12)--10(12)--10(12)--|
 |-------------------------------|------------------------------------------|
 |-------------------------------|------------------------------------------|
 |-------------------------------|------------------------------------------|
E|-------------------------------|------------------------------------------|

e|----------|
 |--10(12)--|
 |----------|
 |----------|
 |----------|
E|----------|
Related for Dont Stop At The Top tab