Song name
# A B C D E F G H I J K L M N O P Q R S T U V W X Y Z

Scorpions - Night Lights tab

Band:  Scorpions
Album: In Trance
Song:  Night Lights

Copyright (c)  (RCA) (1975)
Version 1.0 - (19/04/06)

Transcribed By: Steve
Email:          stephen.elvidge1@ntlworld.com


.  - palm mute           /  - slide up to
\  - slide down to       ~  - vibrato
h  - hammer on           b  - Bend
p  - pull off            Suffixes for bend
t  - tap                 f  - full bend    h - half bend
ph - pinched harmonic    q  - quarter bend t - tap bend
*  - see comment         ^  - Hold bend    r release bend
x  - Stuccatto           ~  - vibrato bend
,  - slight palm mute    () - ghost note, sustained note
"  - tremolo note        <> - harmonic

Tunning Eb Ab Db Gb Bb Eb

          D                      A
          ~~~~~~~~~~~~~~~        ~~~~~~~~~~~~~  ~~~~~~~~~~
E----------------------------------------------------------|
B-pb8---r-7--------------pb8---r-7-----------/8------------|
G-----------------------------------------------9----------|
D----------------------------------------------------------|
A----------------------------------------------------------|
E----------------------------------------------------------|
  
   A#      B                   A#            A    
   ~~~~~~~              ~~~~~~~~~~~~~~~~~~~~~~~~~~~~~~~~~~~~
E-----------------------------------------------------------------|
B-10b------r------------------------------------------------------|
G------------11-9----9-11------pb9-----r--------------------------|
D-----------------12---------------------8---7/8\7-7--------9-9/--|
A-----------------------------------------------------------------|
E-----------------------------------------------------------------|

  C#               E
   ~~~~~~~~~~~~~~~~~   ~~~~~~~~~~~~~~~~~~~~~~~~~~~~~~~~~~~~~~~
E-----------------------------------------------------------------|
B-----------------------------------------------------------------|
G-----------------11b-11b--------11-11brp9--------9-11-9-\7-------|
D-10-------------------------------------------12-----------------|
A-----------------------------------------------------------------|
E-----------------------------------------------------------------|

  C#
   ~~~~~~~~~~~~~~~~~~~~~~~~~~~~~~~~~~
E---------------------------------------|
B-8b------------------------------------|
G----6--------------------------------\-|
D---------------------------------------|
A---------------------------------------|
E---------------------------------------|

  C                      A            E            B       
  ~~~~~~~~~~~~~~~~~~~~~~~~~~~~~~~~~~~~~~~~~~~~~~~~~         ~~~~
E---------------------------------------------------------------------|
B---------------------------------------------------------------------|
G----------------5----------------------------------------------------|
D--------5---------------7---------7/9-------------6/7\6/7\6----2/4\2-|
A-3-------------------------------------------------------------------|
E---------------------------------------------------------------------|

  D                              A
           ~~~~~~~~~~~~~~~~~~~~~~  ~~~~~~          ~~~~             h
E-14------17---------------------20fb----20-19-19-20b--20-17-19-17-19p-|
B-----15---------------------------------------------------------------|
G----------------------------------------------------------------------|
D----------------------------------------------------------------------|
A----------------------------------------------------------------------|
E----------------------------------------------------------------------|

                              B                           A#
               h        ~~~~~                ~~~~~~~          ~~~~~~
E-17----17-------------------------------12-14------12----17----------|
B----19----19-20p19-19/20----\0000-12-15---------------15----13-----\-|
G---------------------------------------------------------------------|
D---------------------------------------------------------------------|
A---------------------------------------------------------------------|
E---------------------------------------------------------------------|

  A
         ~~~~~~~~~~~~~~~~~~
E-------12-----------------14b--r-\--|
B-14-15------------------------------|
G------------------------------------|
D------------------------------------|
A------------------------------------|
E------------------------------------|

   E
                  ~~~~~~~~~~~
E--------------------------------------------------12---------------|
B-----15-17-17fb-17fb--------19-20-19-17-17-15-15b----15-12---------|
G-/16-------------------------------------------------------14br-12-|
D-------------------------------------------------------------------|
A-------------------------------------------------------------------|
E-------------------------------------------------------------------|

   F#                                        F                                       
                   ~~~~~~~~~~~~~~~~~~~~~~~~  ~~~~~~~~
E--------------------------------------------------------------------|
B-----17-19-17fb-17fb----------------------r18--17--15-17-17fb--17fb-|
G-/18----------------------------------------------------------------|
D--------------------------------------------------------------------|
A--------------------------------------------------------------------|
E--------------------------------------------------------------------|

   E
      h~~~~~~~~~~~~~~~~~~~~~~~
E--------------------------------|
B-15-17-----------------------\--|
G--------------------------------|
D--------------------------------|
A--------------------------------|
E--------------------------------|

          D                      A
          ~~~~~~~~~~~~~~~~   ~~~~~~~~~~~~~  ~~~~~~~~~~
E----------------------------------------------------------|
B-pb8---r-7------\-14-----pb8--r-7-----------/8------------|
G-----------------------------------------------9----------|
D----------------------------------------------------------|
A----------------------------------------------------------|
E----------------------------------------------------------|

   A#           B               A#                  A
   ~~~~~~~~~~~~~        ~~~~~~~~          ~~~~~~~~~~~~~~~~~~~~       ~~~
E-------------------------------13-------13fb---rf----------------------|
B-7-10-10b-----\8-------8----------11-11-----------10---------12-12/14--|
G-----------------9-7-9-------------------------------------------------|
D-----------------------------------------------------------------------|
A-----------------------------------------------------------------------|
E-----------------------------------------------------------------------|

 Harmonised section

  Guitar 1
                h              h            h  
E[------------------------------------------------------|
B[-/12-10-10\8-10p8\7-7\5-5\3-5p3\2 2-------------------|
G[------------------------------------4-4-2-4p2-0-------|
D[------------------------------------------------5-4-2-|
A[------------------------------------------------------|
E[------------------------------------------------------|
 [Guitar 2
 [             h              h             h
E[------------------------------------------------------|
B[------------------------------------------------------|
G[-/12-11-11\9-10p9\7-7\6-6\4-6p4\2-2-0-0---------------|
D[----------------------------------------4-5p4-2-------|
A[------------------------------------------------5-5-4-|
E[------------------------------------------------------|


  Guitar 1
                h               h             h
E[-/14-12-12\10-12p10\9-9\7-7\5-7p5\4-4\2-2-0-2p0-----------|
B[------------------------------------------------3-3-2-2---|
G[--------------------------------------------------------4-|
D[----------------------------------------------------------|
A[----------------------------------------------------------|
E[----------------------------------------------------------|
 [Guitar 2
 [              h               h             h
E[----------------------------------------------------------|
B[-/15-14-14\12-14p12\10109-9\7-9p7\5-5\3-3-2-3p2-----------|
G[------------------------------------------------4-4-2-2\1-|
D[----------------------------------------------------------|
A[----------------------------------------------------------|
E[----------------------------------------------------------|

  Guitar 1
             h             h             h
E[-----------------------------------------------------|
B[-/10-8-8\6-8p6-5-5\3-3\1-3p1-------------------------|
G[-----------------------------4-4-2-2-0-2p0-----------|
D[-------------------------------------------3-3-2-2-0-|
A[-----------------------------------------------------|
E[-----------------------------------------------------|
 [Guitar 2
 [           h             h             h
E[-----------------------------------------------------|
B[-----------------------------------------------------|
G[-/10-9-9-7-9p7\5-5\4-4\2-4p2p0-----------------------|
D[-------------------------------5\3-3-2-3p2p0---------|
A[---------------------------------------------5\3-3\2-|
E[-----------------------------------------------------|

  Guitar 1
                h               h             h
E[-/12--10-10-9-10p-9\7-7\5-5-4-5p4-2-2--------------------------------|
B[--------------------------------------5-5-3-5p3\2-2------------------|
G[----------------------------------------------------4-4----(4)-------|
D[---------------------------------------------------------------------|
A[---------------------------------------------------------------------|
E[---------------------------------------------------------------------|
 [Guitar 2
 [              h               h             h 
E[---------------------------------------------------------------------|
B[-/14--12-12-1012p10\9-9\7-7\5-7p5-3-3\2-2-0-2p0----------------------|
G[------------------------------------------------2-2-1-1\-------------|
D[----------------------------------------------------------2/4--(4)---|
A[---------------------------------------------------------------------|
E[---------------------------------------------------------------------|



  D                C                     B          A#
      ~~~~~~~       ~~~~~~~~~  ~~~~~~~~~~~~~~~~~~~~~~~~~~~~~~~~~~~
E-----------------------------------------------------------------|
B-----------------------------------------------------------------|
G-----------------------------------------------------------------|
D-2-2/4------2--0-----------------------------------3-------------|
A------------------3----2----0-3---------2------------------------|
E-----------------------------------------------------------------|

    A
    ~~~~~~~~~~~~~~     ~~~~~~~~~~
E----------------------------------|
B----------------------------------|
G----------------------------------|
D----------------------------------|
A-5/7-------------5-5/7----------\-|
E----------------------------------|

 Rpt to fade


END

Tap to rate this tab
# A B C D E F G H I J K L M N O P Q R S T U V W X Y Z