Song name
# A B C D E F G H I J K L M N O P Q R S T U V W X Y Z

Scorpions - Freshly Squeezed tab

Freshly Squeezed                        Schenker/Wolf/Meine
Scorpions
Eye to eye


---------------------------------------
--7/-----7--5-4-3-----------------------
--7/-----7--5-4-3-----------------------
--7/-----7--5-4-3-----------------------
--5/-----5--3-2-1------1-2-3-2-0--------
--------------------------------3-2-1~--



---------------------------------------------------
---------------------------------------------------
--------7-x-7-------7-------------7-x-7------------
---9-9--7-x-7--9-9--7---7/9--9-9--7-x-7--9-9--7-7-7
---9-9--5-x-5--9-9--5---7/9--9-9--5-x-5--9-9--7-7-7
---7-7---------7-7----0-5/7--7-7---------7-7--5-5-5


------------------------------------------5-5-
------------------------------------------5-5-
---7-7-7-7-7-7-7-7-7----------------7-----5-5-
---7-7-7-7-7-7-7-7-7----------------7---------
------------------------------------5---------
----------------------------------------------


--------------------------------------------------
----------------7h8^9^8^9^8-----------------------
--5/7--7/----5h7----------------------------------
-------7/-----------------------------------------
-------5/-----------------------------------------
--------------------------------------------------


mirsha_joker@hotmail.com
metal-maniaco@the-scorpions.com
Tap to rate this tab
 
# A B C D E F G H I J K L M N O P Q R S T U V W X Y Z