Song name
# A B C D E F G H I J K L M N O P Q R S T U V W X Y Z

Scorpions - Well Burn The Sky Live tab

SCORPIONS
WE'LL BURN THE SKY (live)

Intro :

E-------4-------7-----------------------------I
B-----4---4---4---4---------------------------I
G-----------4------------9---------11---------I
D--6-------------------9---9----11----11------I
A--------------------7--------9---------------I
E---------------------------------------------I

And...

E-------4-------7-----------------------------I
B-----4---4---4---4---------------------------I
G-----------4------------9--------11----------I
D--6-------------------9---9------11----------I
A--------------------7------------9-----------I
E---------------------------------------------I

Riff 1 :

E---------------------------------I
B---------------------------------I
G---------------------------------I
D---6-6-6-----6-x---6-x--4--------I
A---6-6-6--7--6-x-7-6-x--4--------I
E---4-4-4--4--4-x-4-4-x--2--------I

Riff 2 :

E-------------------------------------------I
B-------------------------------------------I
G-------------------------------------------I
D---6-6-6-----6-x---6-x--4------------------I
A---6-6-6--7--6-x-7-6-x--4------------------I
E---4-4-4--4--4-x-4-4-x--2---2-4-5--4-2-----I
Tap to rate this tab
# A B C D E F G H I J K L M N O P Q R S T U V W X Y Z