Song name
# A B C D E F G H I J K L M N O P Q R S T U V W X Y Z

Scorpions - Blood Too Hot tab

Scorpions - Blood Too Hot

-----------------------------|
-----------------------------|
-----------------------------|
-----------------------------|
---------------2-0-----------|
-0-2-0-3~~-0-0-----3-0-0-0-0-|


D A e G D C e G D C G D
-------------3-------------3---------3---|
-3-----------3-3-1---------3-3-1-----3-3-|
-2-2---------0-2-0---------0-2-0-----0-2-|
-0-2-2-0t2-2-0-0-2-2-0t2-2-0-0-2-----0-0-|
---0-2-0t2-2-2---3-2-0t2-2-2---3-2---2---|
-----0-------3-----0-------3-----3-2-3---|


---------------------------------|
---------------------------------|
-7/-9-9--7/-9-9--7/-9-9--12-11-9-|
-7/-9-9--7/-9-9--7/-9-9--12-11-9-|
-5/-7-7--5/-7-7--5/-7-7--10--9-7-|
---------------------------------|

-----------------------|
-----------------------|
-----------------------|
-----------------------|
---------------2-0-----|
-0-2-0-3~~-0-0-----3-0-|
Tap to rate this tab
 
# A B C D E F G H I J K L M N O P Q R S T U V W X Y Z