Song name
# A B C D E F G H I J K L M N O P Q R S T U V W X Y Z

Scorpions - Your Light tab

Band:  Scorpions
Album: Taken By Force
Song:  Your Light

Copyright (c)  (RCA) (1977)
Version 1.0 - (15/04/06)

Transcribed By: Steve
Email:          stephen.elvidge1@ntlworld.com


.  - palm mute           /  - slide up to
\  - slide down to       ~  - vibrato
h  - hammer on           b  - Bend
p  - pull off            Suffixes for bend
t  - tap                 f  - full bend    h - half bend
ph - pinched harmonic    q  - quarter bend t - tap bend
*  - see comment         ^  - Hold bend    r release bend
x  - Stuccatto           ~  - vibrato bend
,  - slight palm mute    () - ghost note, sustained note
"  - tremolo note        <> - harmonic

Tunning Eb Ab Db Gb Bb Eb
 
 Intro

                           ~~~~                         ~~~~~
E-------------------------------------------------------------|
B---0---(0)---------------------------------------------------|
G---0---(0)---9/11/12\11---------5-5-5------------------------|
D---2---(2)----------------------5-5-5---9\4-5-7/9-7--5p4---\-|
A---2---(2)---7/9-/10\9-10p9---\-3-3-3------------------------|
E-0-0---(0)---------------------------------------------------|

      ~~~~~
E---------------------------------------|
B---------------------------------------|
G--------------/5--(5)------------------|
D--------------/7--(7)--4--(4)-/7-(7)-\-|
A-----------------------6--(6)-/9-(9)-\-|
E-2-3-5---(5)---------------------------|


 Cleanish tone

E--------------------------------------|
B--------------------------------------|
G------------xx------------------------|
D-/5-5-5-5-5-xx------------------------|
A-/7-7-7-7-7----5-xx-3---3/5-----------|
E---------------7-xx-5---5/7-x-5-x-3p0-|

E----------------------------------------------|
B----------------------------------------------|
G------------xx----------------5---------------|
D-/5-5-5-5-5-xx----------------5-----5---------|
A-/7-7-7-7------5/xx-3--xx-5-7---5-7---7-5-7---|
E---------------7/xx-5--xx-------------------0-|

E--------------------------------------|
B--------------------------------------|
G----------5-xx-7-xx-5------7-777p5----|
D-/5-5-5-5-5-xx-9-xx-7----5-7-777---5\-|
A-/7-7-7-7--------------7--------------|
E--------------------------------------|


E---3-3-3-3\---3--------7-7-7-7----------|
B---3-3-3-3\---3--------7-7-7-7----------|
G----------------5-4----8-8-8-8-8-9-9p8--|
D----------------------------------------|
A----------------------------------------|
E----------------------------------------|

 Verse

E-------------------------------------------|
B-------------------------------------------|
G----------0-xx--------0--------------------|
D-/5-5-5-5---xx-----------------0-4-4-------|
A-/7-7-7-7------5/xx-3---xx-0-2-------0-2---|
E---------------7/xx-5---xx---------------0-|


E---------------------------------------------|
B---------------------------------------------|
G----------0-xx--------0--------7-----7-------|
D-/5-5-5-5---xx-------------7-9---7-9---7-9---|
A-/7-7-7-7------5/xx-3---xx-----------------7-|
E---------------7/xx-5---xx-------------------|

E-----------------------|
B-----------------------|
G----------5-xx-7-xx-5--|
D-/5-5-5-5-5-xx-9-xx-7--|
A-/7-7-7-7--------------|
E-----------------------|


 Chorus

 Full distortion


  Guitar 1
            F      C      D
E[---------------------------------------|
B[---------------------------------------|
G[-7--5------------------------7---------|
D[-9--7--5--3---3\-----------------------|
A[-----------------3--3---5--5-----------|
E[-------------------------------7--5--3-|
 [Guitar 2
 [          ~~~~~~~~~~~~~~~~~~~~~
E[---------------------------------------|
B[----------15fb---15b---15fb------------|
G[---------------------------------------|
D[---------------------------------------|
A[---------------------------------------|
E[-------------------------------7--5--3-|

  Guitar 1
   F      C      D
E[------------------------------|
B[------------------------------|
G[--------------------7---------|
D[-----3\-----------------------|
A[--------3--3---5--5-----------|
E[-3--------------------7--5--3-|
 [Guitar 2
 [ ~~~~~~~~~~~~~~~~~~~~~
E[------------------------------|
B[-15fb---15b---15fb--\---------|
G[------------------------------|
D[------------------------------|
A[------------------------------|
E[----------------------7--5--3-|

  Guitar 1
   F      C      D   ~~~     ~~~~~~
E[------------------10-------------|
B[------------------13b-10-10------|
G[----------------------11-9-------|
D[-----3\--------------------12-10-|
A[--------3-0-3--5-----------------|
E[-3-------------------------------|
 [Guitar 2
 [ ~~~~~~~~~~~~~~~~~~~~~     ~~~~~~
E[---------------------------------|
B[-15fb---15b---15fb--\-10-10------|
G[----------------------11-9-------|
D[---------------------------12-10-|
A[---------------------------------|
E[---------------------------------|

  Guitar 1
   F      C      D 
   ~~~~~~~~~~~~~~~                            h             h
E[---------------------------------------------------------------------|
B[--------------------------------------------------------4-5-5555p4---|
G[-4fb-----4b-----4-2--2--------<5><5>----7p6-7-9-9/11----4---4444---4-|
D[-----------------------6--4--7<5><5>7/9------------------------------|
A[-----------------------4--2------------------------------------------|
E[------------------------------------------------------7--------------|
 [Guitar 2
 [ ~~~~~~~~~~~~~~~                            h             h
E[---------------------------------------------------------------------|
B[-12fb----12b---12-1010----------------------------------4-5-5555p4---|
G[-----------------------9--9-------------7p6-7-9-9/11----4---4444---4-|
D[-----------------------------7-5--5-7/9------------------------------|
A[---------------------------------------------------------------------|
E[---------------------------------------------------5/7---------------|

 Rpt Verse

 Mid Verse variation
                   h                h     h    h           
E---3-3-3-3\---3----------7-7-7-7------------------|
B---3-3-3-3\---3----------7-7-7-7-----7-----7----7-|
G----------------4-5p4----8-8-8-8-8-9---8-9--8-9---|
D--------------------------------------------------|
A--------------------------------------------------|
E--------------------------------------------------|


 Rpt Chorus

 Cleanish tone

E-------------------------------------|
B-------------------------------------|
G-------------xx----------------------|
D--/6-6-6-6-6-xx---xx-----------------|
A--/7-7-7-7------6-xx-4-----4/6-6-6\4-|
E-0--------------7----5---x-5/7-7-7\5-|

E----------------------------0-----------|
B------------------------------4-5-4-5---|
G-------------xx--------6--x-----------6-|
D--/6-6-6-6-6-xx---xx--------------------|
A--/7-7-7-7------6-xx-4------------------|
E-0--------------7----5------------------|

E--------------------------|
B--------------------------|
G-------------xx-8----6----|
D--/6-6-6-6-6-xx-9-xx-7----|
A--/7-7-7-7----------------|
E-0------------------------|

  Guitar 1
E[------------------------------------------------------|
B[------------------------------------------------------|
G[------------------------------------------------------|
D[-2--4--6--4----4--------2--4--6--4--2--4--2--2--4--6-2|
A[-0--2--4--2-------6-4---------------------------------|
E[------------------------------------------------------|
 [Guitar 2
E[------------------------------------------------------|
B[------------------------5--7--7fb7-----------5--7--7fb|
G[------------------------------------------------------|
D[------------------------------------------------------|
A[------------------------------------------------------|
E[------------------------------------------------------|
 [Guitar 3
E[------------------------------------------------------|
B[------------------------------------------------------|
G[------------------------------------------------------|
D[-2--4--6--4---(4)---2---2--4--6--4---(4)--2--2--4--6--|
A[-0--2--4--2---(2)---0---0--2--4--2---(2)--0--0--2--4--|
E[------------------------------------------------------|


  Guitar 1
E[-----------------------------------------------|
B[-----------------------------------------------|
G[-----------------------------------------------|
D[/4----------------2----------------------------|
A[---------6-4---4-----44/6--6\4\2-0----0--0--0--|
E[-----------------------------------------------|
 [Guitar 2
E[-----------------------------------------------|
B[---------------5--7--7fb7----------------------|
G[-----------------------------------------------|
D[-----------------------------------------------|
A[-----------------------------------------------|
E[-----------------------------------------------|
 [Guitar 3
E[-----------------------------------------------|
B[-----------------------------------------------|
G[-----------------------------------------------|
D[-4---(4)---2---2--4--6--4---(4)--2----2--2--2--|
A[-2---(2)---0---0--2--4--2---(2)--0----0--0--0--|
E[-----------------------------------------------|
 [Guitar 4 clean
E[-----0---2-------------------------------------|
B[-0-----4---------------------------------------|
G[-----------------------------------------------|
D[-----------------------------------------------|
A[-----------------------------------------------|
E[-----------------------------------------------|


  Guitar 1
                  ~~~~~~~    ~~~~~
E[--------------------------------------------------------|
B[--------------------------------------------------------|
G[--------------------------------------------------------|
D[--------2------------------------4----------------------|
A[-2----------2-----------------------4-----4---------2---|
E[-0--------------4/7-------\0-2---------5----------------|
 [Guitar 2
 [          h
E[--------------------------------------------------------|
B[------0-------------------------------------------------|
G[--------1-2p1-------------------------------------------|
D[--------------4p2-4----------4---4br4-2-------------2-4-|
A[-2--------------------6-\--2------------2-4-4-2-2-4-----|
E[-0------------------------------------------------------|

 
  Guitar 1
                   ~~~~~~~    ~~~~~         ~~~~~~~~~~
E[-----------------------------------------------------|
B[-----------------------------------------------------|
G[-----------------------------------------------------|
D[--------2------------------------4-------------------|
A[-2----------2-----------------------4-----4-------2--|
E[-0--------------4/7-----\0-2-----------5-------------|
 [Guitar 2
 [          h                ~~~~~~~~~~~~~~~~~~~~~~~~~
E[-----------------------------------------------------|
B[------0--------------------7b----------------------r-|
G[--------1-2p1-----4--4b-r----------------------------|
D[--------------4p2------------------------------------|
A[-2---------------------------------------------------|
E[-0---------------------------------------------------|


  Guitar 1
                  ~~~~~~~    ~~~~~         ~~~~~~~~~~~~~~
E[--------------------------------------------------------|
B[--------------------------------------------------------|
G[--------------------------------------------------------|
D[--------2------------------------4----------------------|
A[-2----------2-----------------------4-----4---------2---|
E[-0--------------4/7-------\0-2---------5----------------|
 [Guitar 2
 [          h
E[--------------------------------------------------------|
B[------0-------------------------------------------------|
G[--------1-2p1-------------------------------------------|
D[--------------4p2-4----------4---4br4-2-------------2-4-|
A[-2--------------------6-\--2------------2-4-4-2-2-4-----|
E[-0------------------------------------------------------|


  Guitar 1
E[------------------------------------------------------|
B[------------------------------------------------------|
G[------------------------------------------------------|
D[--------2---------------------------1/2-2-----(2)-----|
A[-2----------2-----------------------2/3-3-----(3)-----|
E[-0--------------4/7-----\0-2--------------------------|
 [Guitar 2
 [          h                ~~~~~~~~~
E[------------------------------------------------------|
B[------0--------------------7b-------r-----------------|
G[--------1-2p1-----4--/6-6b----------------------------|
D[--------------4p2-------------------------------------|
A[-2----------------------------------------------------|
E[-0----------------------------------------------------|

E-------|
B-------|
G-xx\---|
D-xx\---|
A---\---|
E-------|

E-------------------------------------|
B-------------------------------------|
G-------------xx----------------------|
D--/6-6-6-6-6-xx---xx-----------------|
A--/7-7-7-7------6-xx-4-----4/6-6-6\4-|
E-0--------------7----5---x-5/7-7-7\5-| Rpt 2 X

E----------------------------------|
B----------------------------------|
G-------------xx-8----6--6-6/888\6-|
D--/6-6-6-6-6-xx-9-xx-7--7-7/999\7-|
A--/7-7-7-7------------------------|
E-0--------------------------------|


E-------------------------------------|
B-------------------------------------|
G-------------xx----------------------|
D--/6-6-6-6-6-xx---xx-----------------|
A--/7-7-7-7------6-xx-4-----4/6-6-6\4-|
E-0--------------7----5---x-5/7-7-7\5-|


E-------------------------------------------|
B-------------------------------------------|
G-------------xx----------------------------|
D--/6-6-6-6-6-xx---xx-------2-5p4-2-4-5p4-2-|
A--/7-7-7-7------6-xx-4---------------------|
E-0--------------7----5---x-----------------|

E----------------------------------------|
B----------------------------55----------|
G-------------xx-8----6----4------4------|
D--/6-6-6-6-6-xx-9-xx-7--6------6---4-6--|
A--/7-7-7-7------------------------------|
E-0--------------------------------------|

  Guitar 
E[-------------------------------------------|
B[-------------------------------------------|
G[-------------xx-8----6---------------------|
D[--/6-6-6-6-6-xx-9-xx-7---------------------|
A[--/7-7-7-7---------------------------------|
E[-0-----------------------------------------|
 [Guitar 2
E[-------------------------------------------|
B[-------------------------------------------|
G[-------------xx----------------------------|
D[--/6-6-6-6-6-xx---xx----xx-----2-----2-----|
A[--/7-7-7-7------6-xx-4--xx-2-4---2-4---2---|
E[-0--------------7----5-------------------4-|

E-----------------------------------|
B-----------------------------------|
G-------------xx-------------11/18--|
D--/6-6-6-6-6-xx---xx----xx---------|
A--/7-7-7-7------6-xx-4--xx---------|
E-0--------------7----5-------------|


 Guitar solo

   ~~~~~~~~~~  
E---------------------12-----------------------------------------------|
B-15b-r15b---------------15-12----------------------------14b---14br12-|
G-----------------14b----------14-14p12----------12----x--14b-x-14br12-|
D---------------------------------------14-12-14----14-----------------|
A----------------------------------------------------------------------|
E----------------------------------------------------------------------|

         ~~~~~~~~~~~~~~~~      ~~~~       ~~~~           ~~~~~
E------------------------------15bp12-------------------15bp12-------|
B-------12-14br12-14br12---------------------------------------------|
G-------12-14br12-14br12--------------14-12------12<12>--------14-12-|
D-14-12------------------14p12----------------14---------------------|
A--------------------------------------------------------------------|
E--------------------------------------------------------------------|

  ~~~~~~~~~~~~   ~~~~~~~~~~~~~~~         ~~~~~~~~~~~~~~~~~~~~~~ 
E-15b-15b-15b-12-17fb-17fb-17fb-17-12-15-17b-17fb17fb17fb-------|
B---------------------------------------------------------------|
G---------------------------------------------------------------|
D---------------------------------------------------------------|
A---------------------------------------------------------------|
E---------------------------------------------------------------|

   ~~~~~~~~~~~~~~~~~~~~~~~~~~~~~~~~~~~~~~~~~~~~~~~~~~~~~~~~~~   ~~~~
E------------------12----12----12----12----12----12----12-----------|
B----12----12----12------12----12----12----12----12----12----12-15b-|
G-14b---14b---14b-----14b---14b---14b---14b---14b---14b---14b-------|
D-------------------------------------------------------------------|
A-------------------------------------------------------------------|
E-------------------------------------------------------------------|

   ~~~~~~~~~~~~~~~~~~~~~~~~~~~~~~~~~~~~~~~~~~~~~~~~~~~~~~~~~~~~
E----12----12----12----12--------------------------------------|
B----12----12----12----12----15----15----15----15-----------12-|
G-14b---14b---14b---14b---14b---14b---14b---14b---14br12-14-12-|
D--------------------------------------------------------------|
A--------------------------------------------------------------|
E--------------------------------------------------------------|

  ph                      ~~~~
E---------15p12-----------------------------------|
B--------12-----15p12-11--------------------------|
G------------------------14b---r-12-14p12//\12/15-|
D-12---b------------------------------------------|
A-------------------------------------------------|
E-------------------------------------------------|

         ~~~~~~~~~~~~                               ~~~~~~~~~
E------------------------------------------------------------|
B---------------------------------12fb-r-10-12---------------|
G--------------11b--r11-9-11p9-----------------11br-9--------|
D-------14---------------------11----------------------------|
A------------------------------------------------------------|
E-10/12------------------------------------------------------|

   ~~~~~                   ~~~~~~
E---------------------------------------------------|
B-17fb--17-----------------17fb--17-----------------|
G----------9/12\9-------------------9/12\9----------|
D-----------------11-14-14-----------------11-14-14-|
A---------------------------------------------------|
E---------------------------------------------------|

   ~~~~                    ~~~~~~~
E-------------------------------------|
B-19fb-19-----------------19fb--r-\---|
G---------9/12\9-------13-------------|
D----------------11-14----------------|
A-------------------------------------|
E-------------------------------------|

   ~~~~~~~~~~~~~~~~~~~~~~~                        ~~~       ~~~~~~~
E-22fb-22fb-22fb-22fb-22fb\-------------------------------------------|
B----------------------------14-12---------------17fb\----------------|
G----------------------------------13-11\9----9------------12b-12br---|
D------------------------------------------11----------------------14-|
A---------------------------------------------------------------------|
E---------------------------------------------------------------------|

 To fade          ~~~                                           ~~~
E--------------------------------------12-----------------------------|
B----14----------12b----------------------15-14-12--------------------|
G-------13-----------12-------------11-------------14-12-------12br---|
D-11-------14-11--------14-14-11-14----------------------14-12-----14-|
A---------------------------------------------------------------------|
E---------------------------------------------------------------------|



END

Tap to rate this tab
# A B C D E F G H I J K L M N O P Q R S T U V W X Y Z