Song name
# A B C D E F G H I J K L M N O P Q R S T U V W X Y Z

Scorpions - Media Overkill tab

first tab ever written, so you know its good

p = pinch \
pb=pinch bend
ps= pinch slide

past the wah affect just power chords, not hard
e-----------------------------------------------------------|
B-----------------------------------------------------------|
G----7-2-2-2----7-2--------7-2-2-2--------------------------|
D--9-5-4-0-0--9-5-4-5-5--9-5-4-0-0-7-7-7p-------------------|
A--7----------7-----3-3--7---------9-5-9p-------------------|
E-----------------------------------------------------------|

then bass for a bit in backround
little riff " taking all the world under control

e-------------------------------------|
B-------------------------------------|
G--14pb-------------------------------|
D-------9s7---------------------------|
A-------------------------------------|
E-------------------------------------|

e------------------------------------------|
B--8---------------------------------------|
G--9-5--7-5--9--97979----------------------|
D--9-5--7-5--9--97979----------------------|
A--7-3--5-3--7--75757----------------------|
E------------------------------------------|
solo made up just do it anyways still rocks to it
tap the one part a few times then yea
e------------------------------------------------------------|
B--------------------------T---------------------------------|
G-----------------11-12-14-18--11p-9-------------------------|
D--9ps4s7s9s12s14--------------------7s9s4s7-------689-------|
A-----------------------------------------------789----------|
E--------------------------------------------457-------------|
Tap to rate this tab
# A B C D E F G H I J K L M N O P Q R S T U V W X Y Z