Song name
# A B C D E F G H I J K L M N O P Q R S T U V W X Y Z

Scott Joplin - Pineapple Rag tab

----------------------------------------------------------------------------
		      Pine Apple Rag - Scott Joplin
----------------------------------------------------------------------------

Tabbed by: Dave S. 
Email: prime-prine@hotmail.com

Tuning: Standard




     S E  S S S S S    S S S S Q       S E  S S S E      E  E  E  E   
E||--3-1--0---------|--------1-L----|--3-3--2-3-5-6--|---8--1--L--1--|
B||---------3-2-3-1-|----1-3--------|----------------|---------------|
G||--0--------------|--3------------|--0-0----0-2-3--|---------------|
D||----3--2-0---0---|------0-3-L----|-------4--------|--10--3-----3--|
A||-----------4---3-|--1-3----------|----------------|---------------|
E||-----------------|---------------|----------------|---------------|


  S S S S S S S S    S S S S S S  E     S S S S S S S S    E  S S S S E   
--3-1-L-----------|--------1-L-6-10--|--3-1-L-----------|--1--1---1---1--|
--3---3-4-3-2-3-1-|----1-3-----------|--3---3-4-3-2-3-4-|--3----3---3----|
--3---3-------3---|--3---3-------10--|--3---3-------3---|--3--3---3---3--|
------3-------3---|------3--------8--|------3-------3---|-----0---3---6--|
--1---------------|--1-L----------8--|--1---------------|--1-------------|
----------1-------|----------1-------|----------1-------|----------------|


  S S S S E  S S    S  S S S S S S S    S S S S E  S S    E  S S S S S S  
----6-----6----6-|--L-10-6---1-0-1-3-|--5-1-1-5-3--5-1-|--L------------1-|
----4-4---4--4-3-|--L----3-3---------|----1-1---5--4---|---------1-3-4---|
--3---3-3----3---|-------3---3---2---|--5---2---3--3-2-|--L--2-3---------|
--5---5---4--5---|--3----3---0-------|-----------------|--3--------------|
-----------------|---------------4---|--3-------3------|-----3---0-------|
--3-------2------|--1----------------|-----------------|--1----------1---|


  S S S S S S S S    S S S S S S  E     S S S S S S S S    E  S S S S E   
--3-1-L-----------|--------1-L-6-10--|--3-1-L-----------|--1--1---1---1--|
--3---3-4-3-2-3-1-|----1-3-----------|--3---3-4-3-2-3-4-|--3----3---3----|
--3---3-------3---|--3---3-------10--|--3---3-------3---|--3--3---3---3--|
------3-------3---|------3--------8--|------3-------3---|-----0---3---6--|
--1---------------|--1-L----------8--|--1---------------|--1-------------|
----------1-------|----------1-------|----------1-------|----------------|


  S S S S E  S S    S  S S S S S S S    E  E  S E  S    E  S S S S E   
----6-----6----6-|--L-10-6-1---1-3-6-|---------------|-------------1--|
----4-4---4--4-3-|--L----3---3---3---|--------1-3----|-------1-3-4-4--|
--3---3-3----3---|-------3-------3---|--3-----2----3-|--L--3-------2--|
--5---5---4--5---|--3----3---3---3---|--2--1--1----0-|--L----------3--|
-----------------|-------------------|---------------|--1-------------|
--3-------2------|--1--------1-------|--3--2--1------|-------------1--|


  S S S S S S S S    S S S S S S  E     S S S S S S S S    E  S S S S E   
--3-1-L-----------|--------1-L-6-10--|--3-1-L-----------|--1--1---1---1--|
--3---3-4-3-2-3-1-|----1-3-----------|--3---3-4-3-2-3-4-|--3----3---3----|
--3---3-------3---|--3---3-------10--|--3---3-------3---|--3--3---3---3--|
------3-------3---|------3--------8--|------3-------3---|-----0---3---6--|
--1---------------|--1-L----------8--|--1---------------|--1-------------|
----------1-------|----------1-------|----------1-------|----------------|


  S S S S E  S S    S  S S S S S S S    S S S S E  S S    E  S S S S S S  
----6-----6----6-|--L-10-6---1-0-1-3-|--5-1-1-5-3--5-1-|--L------------1-|
----4-4---4--4-3-|--L----3-3---------|----1-1---5--4---|---------1-3-4---|
--3---3-3----3---|-------3---3---2---|--5---2---3--3-2-|--L--2-3---------|
--5---5---4--5---|--3----3---0-------|-----------------|--3--------------|
-----------------|---------------4---|--3-------3------|-----3---0-------|
--3-------2------|--1----------------|-----------------|--1----------1---|


  S S S S S S S S    S S S S S S  E     S S S S S S S S    E  S S S S E   
--3-1-L-----------|--------1-L-6-10--|--3-1-L-----------|--1--1---1---1--|
--3---3-4-3-2-3-1-|----1-3-----------|--3---3-4-3-2-3-4-|--3----3---3----|
--3---3-------3---|--3---3-------10--|--3---3-------3---|--3--3---3---3--|
------3-------3---|------3--------8--|------3-------3---|-----0---3---6--|
--1---------------|--1-L----------8--|--1---------------|--1-------------|
----------1-------|----------1-------|----------1-------|----------------|


  S S S S E  S S    S  S S S S S S S    E  E  S E  S    E  S S S S S S  
----6-----6----6-|--L-10-6-1---1-3-6-|---------------|-----------------|
----4-4---4--4-3-|--L----3---3---3---|--------1-3----|-----------------|
--3---3-3----3---|-------3-------3---|--3-----2----3-|--L----------0-1-|
--5---5---4--5---|--3----3---3---3---|--2--1--1----0-|--L--3-2-3-4-----|
-----------------|-------------------|---------------|--1----------2---|
--3-------2------|--1--------1-------|--3--2--1------|-----------------|


  S S S S E  S S    S S E  E   E     S S S S E  S S    S S E  E  E   
----5-----3----5-|--L---3--5---3--|----3-----1----3-|--L---1--3--1--|
----4-4---4--4-4-|--L---4--4---4--|----3-3---3--3-3-|--L---3--3--3--|
--2-5-2-0-5--2-5-|--L-0-5--5---5--|--0-3-3---3--0-3-|--L---3--3--3--|
------3------3---|------3--7---5--|------3-3----3---|----3-3--5--3--|
--3--------------|--3---------10--|--1--------------|--1------------|
----------1------|---------1------|----------1------|---------1-----|


  S  S S S  E  S  S     S S  E   E  E     S S S S E  E     E  S S S S S S  
--1-13-----12----10-|---L----8--10--8--|----8-----6--1--|--1--------------|
----13-4-4-13--3-10-|---L-4-10---6--6--|--1-6-3---6--1--|--3--------------|
----14-2---14--2-10-|---L---10---7--5--|------3-3-L--3--|--3----------0-1-|
-------3-------3----|--------3------3--|------3------5--|--3--3-2-3-4-----|
--------------------|------------------|--1-------1--7--|-------------2---|
--5---------1-------|---5--------1-----|----------------|-----------------|


  S S S S E  S S    S S E  E   E     S S S S E  S S    S S E  E  E   
----5-----3----5-|--L---3--5---3--|----3-----1----3-|--L---1--3--1--|
----4-4---4--4-4-|--L---4--4---4--|----3-3---3--3-3-|--L---3--3--3--|
--2-5-2-0-5--2-5-|--L-0-5--5---5--|--0-3-3---3--0-3-|--L---3--3--3--|
------3------3---|------3--7---5--|------3-3----3---|----3-3--5--3--|
--3--------------|--3---------10--|--1--------------|--1------------|
----------1------|---------1------|----------1------|---------1-----|


  S S S S E  E     S S S S E  E     S  S S S  E   E     E  S S S S S S  
----2-----6--3--|----1-----0--1--|-----8---1-10---8--|--6--------------|
----4-4---8--4--|----3-3---2--3--|--3-10-4---10--10--|--3--------------|
----3-3---8--3--|----3-3---3--3--|-------2--------8--|-------------0-1-|
--4---4-8-L--5--|--3---3-2-L--3--|-------3--------3--|-----3-2-3-4-----|
--6-------9--6--|--5-------4--5--|-------------------|--1----------2---|
----------------|----------------|--1---------1------|-----------------|


  S S S S E  S S    S S E  E   E     S S S S E  S S    S S E  E  E   
----5-----3----5-|--L---3--5---3--|----3-----1----3-|--L---1--3--1--|
----4-4---4--4-4-|--L---4--4---4--|----3-3---3--3-3-|--L---3--3--3--|
--2-5-2-0-5--2-5-|--L-0-5--5---5--|--0-3-3---3--0-3-|--L---3--3--3--|
------3------3---|------3--7---5--|------3-3----3---|----3-3--5--3--|
--3--------------|--3---------10--|--1--------------|--1------------|
----------1------|---------1------|----------1------|---------1-----|


  S  S S S  E  S  S     S S  E   E  E     S S S S E  E     E  S S S S S S  
--1-13-----12----10-|---L----8--10--8--|----8-----6--1--|--1--------------|
----13-4-4-13--3-10-|---L-4-10---6--6--|--1-6-3---6--1--|--3--------------|
----14-2---14--2-10-|---L---10---7--5--|------3-3-L--3--|--3----------0-1-|
-------3-------3----|--------3------3--|------3------5--|--3--3-2-3-4-----|
--------------------|------------------|--1-------1--7--|-------------2---|
--5---------1-------|---5--------1-----|----------------|-----------------|


  S S S S E  S S    S S E  E   E     S S S S E  S S    S S E  E  E   
----5-----3----5-|--L---3--5---3--|----3-----1----3-|--L---1--3--1--|
----4-4---4--4-4-|--L---4--4---4--|----3-3---3--3-3-|--L---3--3--3--|
--2-5-2-0-5--2-5-|--L-0-5--5---5--|--0-3-3---3--0-3-|--L---3--3--3--|
------3------3---|------3--7---5--|------3-3----3---|----3-3--5--3--|
--3--------------|--3---------10--|--1--------------|--1------------|
----------1------|---------1------|----------1------|---------1-----|


  S S S S E  E     S S S S E  E     S  S S S  E   E     E  S S S S E   
----2-----6--3--|----1-----0--1--|-----8---1-10---8--|--6----------1--|
----4-4---8--4--|----3-3---2--3--|--3-10-4---10--10--|--3----1-3-4-4--|
----3-3---8--3--|----3-3---3--3--|-------2--------8--|-----3-------2--|
--4---4-8-L--5--|--3---3-2-L--3--|-------3--------3--|----------------|
--6-------9--6--|--5-------4--5--|-------------------|--1-------------|
----------------|----------------|--1---------1------|-------------1--|


  S S S S S S S S    S S S S S S  E     S S S S S S S S    E  S S S S E   
--3-1-------------|--------1-L-6-10--|--3-1-L-----------|--1--1---1---1--|
--3---3-4-3-2-3-1-|----1-3-----------|--3---3-4-3-2-3-4-|--3----3---3----|
--3---3-------3---|--3---3-------10--|--3---3-------3---|--3--3---3---3--|
------3-------3---|------3--------8--|------3-------3---|-----0---3---6--|
--1---------------|--1-L----------8--|--1---------------|--1-------------|
----------1-------|----------1-------|----------1-------|----------------|


  S S S S E  S S    S  S S S S S S S    S S S S E  S S    E  S S S S S S  
----6-----6----6-|--L-10-6---1-0-1-3-|--5-1-1-5-3--5-1-|--L------------1-|
----4-4---4--4-3-|--L----3-3---------|----1-1---5--4---|---------1-3-4---|
--3---3-3----3---|-------3---3---2---|--5---2---3--3-2-|--L--2-3---------|
--5---5---4--5---|--3----3---0-------|-----------------|--3--------------|
-----------------|---------------4---|--3-------3------|-----3---0-------|
--3-------2------|--1----------------|-----------------|--1----------1---|


  S S S S S S S S    S S S S S S  E     S S S S S S S S    E  S S S S E   
--3-1-L-----------|--------1-L-6-10--|--3-1-L-----------|--1--1---1---1--|
--3---3-4-3-2-3-1-|----1-3-----------|--3---3-4-3-2-3-4-|--3----3---3----|
--3---3-------3---|--3---3-------10--|--3---3-------3---|--3--3---3---3--|
------3-------3---|------3--------8--|------3-------3---|-----0---3---6--|
--1---------------|--1-L----------8--|--1---------------|--1-------------|
----------1-------|----------1-------|----------1-------|----------------|


  S S S S E  S S    S  S S S S S S S    E  E  S E  S    E  E  S S S S  
----6-----6----6-|--L-10-6-1---1-3-6-|---------------|----------------|
----4-4---4--4-3-|--L----3---3---3---|--------1-3----|----------1-----|
--3---3-3----3---|-------3-------3---|--3-----2----3-|--L-----L-1-3-2-|
--5---5---4--5---|--3----3---3---3---|--2--1--1----0-|--L--3--L---5-3-|
-----------------|-------------------|---------------|--1-----1-------|
--3-------2------|--1--------1-------|--3--2--1------|----------------|


  S S S S S S S S    S S S S S S S S    S S S S S S  E     S S S S  S S S S  
------------------|------------------|------------------|-------------------|
------------------|------------------|------------------|-------------------|
--0---5-0-L-L-L-L-|--0---5-0-L-L-L-L-|------------------|--------0--3-5-3-1-|
--1-4---1-L-L-L-L-|--1-4---1-L-L-L-L-|--1-3-1-4-L-3--1--|--5---1----6-1-5-3-|
--1-6---1-1-6-1---|--1-6---1-1-6-1---|--3-----6-L-------|--6-1------8-------|
----4-----------3-|----4-----------3-|--4-----8-4---11--|--6-------10-------|


  S S S S S S E      S S S S S S  E     S E   S S S E     E  S S S S S S  
-----------------|----------------6--|--6-5---4-L-6-4--|--3--------------|
--------------4--|---4-3---3-L----8--|--7-----6-L---6--|--3--------1-----|
--0---5-0-L-L-5--|---3-3-0-3-L-0-----|--5-----5-L---5--|--3----0-3-1-3-1-|
--1-4---1-L-L-5--|---5-5---5-L---12--|-------10-0------|--5--0---5---5-3-|
--1-6---1-1-6-3--|-------------------|--5-----5-----5--|---------5-------|
----4------------|--10-----------10--|-----------------|-----------------|


  S S S S S S S S    S S S S S S S S    S S S S S S  E     S S S S E  E   
------------------|------------------|------------------|----------------|
------------------|------------------|------------------|----------------|
--0---5-0-L-L-L-L-|--0---5-0-L-L-L-L-|------------------|----------0--3--|
--1-4---1-L-L-L-L-|--1-4---1-L-L-L-L-|--1-3-1-4-L-3--1--|--5-----1-1--1--|
--1-6---1-1-6-1---|--1-6---1-1-6-1---|--3-----6-L-------|--6---1---1--4--|
----4-----------3-|----4-----------3-|--4-----8-4---11--|--6-3--------3--|


  S S S S S S E     S S S S S S  E     S S S S S S E     E  S S S S S S  
-----------------|--------3-L-------|-----------------|-----------------|
--------1-L------|--1-----4-L-4-----|--------1-L------|-----------------|
--3-1---1-L-4-5--|--0-2-3-3-L----0--|--0-----1-L-3-0--|-----------------|
--1---1-1-L---4--|--1------------1--|--0-3---0-L---0--|--1------0-1-3-4-|
--3-----------6--|--1-------1---13--|--1---1---1---1--|--1--2-3-1-------|
--4-------4---5--|------------------|-----------------|--3--------------|


  E  E  S S S S    S S S S S S S S    S S S S S S S S    S S S S S S  E   
----------------|------------------|------------------|------------------|
----------1-----|------------------|------------------|------------------|
--L-----L-1-3-2-|--0---5-0-L-L-L-L-|--0---5-0-L-L-L-L-|------------------|
--L--3--L---5-3-|--1-4---1-L-L-L-L-|--1-4---1-L-L-L-L-|--1-3-1-4-L-3--1--|
--1-----1-------|--1-6---1-1-6-1---|--1-6---1-1-6-1---|--3-----6-L-------|
----------------|----4-----------3-|----4-----------3-|--4-----8-4---11--|


  S S S S  S S S S    S S S S S S E      S S S S S S  E     S E   S S S E   
-------------------|-----------------|----------------6--|--6-5---4-L-6-4--|
-------------------|--------------4--|---4-3---3-L----8--|--7-----6-L---6--|
--------0--3-5-3-1-|--0---5-0-L-L-5--|---3-3-0-3-L-0-----|--5-----5-L---5--|
--5---1----6-1-5-3-|--1-4---1-L-L-5--|---5-5---5-L---12--|-------10-0------|
--6-1------8-------|--1-6---1-1-6-3--|-------------------|--5-----5-----5--|
--6-------10-------|----4------------|--10-----------10--|-----------------|


  E  S S S S S S    S S S S S S S S    S S S S S S S S    S S S S S S  E   
--3--------------|------------------|------------------|------------------|
--3--------1-----|------------------|------------------|------------------|
--3----0-3-1-3-1-|--0---5-0-L-L-L-L-|--0---5-0-L-L-L-L-|------------------|
--5--0---5---5-3-|--1-4---1-L-L-L-L-|--1-4---1-L-L-L-L-|--1-3-1-4-L-3--1--|
---------5-------|--1-6---1-1-6-1---|--1-6---1-1-6-1---|--3-----6-L-------|
-----------------|----4-----------3-|----4-----------3-|--4-----8-4---11--|


  S S S S E  E     S S S S S S E     S S S S S S  E     S S S S S S E   
----------------|-----------------|--------3-L-------|-----------------|
----------------|--------1-L------|--1-----4-L-4-----|--------1-L------|
----------0--3--|--3-1---1-L-4-5--|--0-2-3-3-L----0--|--0-----1-L-3-0--|
--5-----1-1--1--|--1---1-1-L---4--|--1------------1--|--0-3---0-L---0--|
--6---1---1--4--|--3-----------6--|--1-------1---13--|--1---1---1---1--|
--6-3--------3--|--4-------4---5--|------------------|-----------------|


  E  E  S S S S                  
----------------|----|----|----||
----------3-4-6-|----|----|----||
----------------|----|----|----||
--1-----L-0-1-3-|----|----|----||
--1-----1-------|----|----|----||
--3--3--3-------|----|----|----||




Duration Legend
---------------
W - whole
H - half
Q - quarter
E - 8th
S - 16th
T - 32nd
X - 64th
. - note dotted
|-n-|  - n-tuplets


Tablature Legend
----------------
L - tied note
x - dead note
g - grace note
(n) - ghost note
> - accentuded note
NH - natural harmonic
AH - artificial harmonic
TH - tapped harmonic
SH - semi harmonic
PH - pitch harmonic
h - hammer on
p - pull off
b - bend
br - bendRelease
pb - preBend
pbr - preBendRelease
brb - bendReleaseBend
\n/ - tremolo bar dip
\n - tremolo bar dive
-/n - tremolo bar Release up
/n\ - tremolo bar inverted dip
/n - tremolo bar return
-\n - tremolo bar Release down
S - shift slide
s - legato slide
/ -  slide into from below or out of upwards
\ -  slide into from above or out of downwards
~ - vibrato
W - wide vibrato
tr - trill
TP - tremolo picking
T - tapping
S - slap
P - pop
< - fade in
^ - brush up
v - brush down
Tap to rate this tab
 
# A B C D E F G H I J K L M N O P Q R S T U V W X Y Z