Song name
# A B C D E F G H I J K L M N O P Q R S T U V W X Y Z

Scott Joplin - The Entertainer tab

The Entertainer-Scott Joplin
|-10-12-8----------|--------------|----------------|---|-3--------||
|---------10~-12-8-|--------------|----------------|---|-3--------||
|------------------|-7-9-5--------|----------------|---|-0----7-8-||
|------------------|-------7~-9-5-|----------------|---|-0--------||
|------------------|--------------|-5-7-3----------|---|-2--------||
|------------------|--------------|-------5~-7-5-4-|-3-|-3--------||

(parenthesis played on 2nd times, brakets played 2nd time fill)
Verse 1 & 2   (&)                                          __________________________________
Fig 1              end Fig 1                              / 1
||---8---8----|-8~-8-10-11-|-12-8-10-12~-8-10~|-8-(8-10)|-Fig-|------8-12~-10-8----|-10------|
||o-----------|-----[10-8]-|------------------|---------|--1--|-7-10------------12-|--------o|
||--9---9---9-|------------|------------------|-----7-8-|-----|--------------------|-----7-8-|
||------------|------------|------------------|---------|-----|--------------------|---------|
||o-----------|------------|------------------|---------|-----|--------------------|--------o|
||------------|------------|------------------|---------|-----|--------------------|---------|
 _____________________________________________________________
/ 2
|-12-8-10-12~-8-10-8-|-12-8-10-12~-8-10-8-|-12-8-10-12~-8-10~|-8-||-(8)-----|
|--------------------|--------------------|------------------|--o||---------|
|--------------------|--------------------|------------------|---||----9-10-|
|--------------------|--------------------|------------------|---||---------|
|--------------------|--------------------|------------------|--o||---------|
|--------------------|--------------------|------------------|---||---------|
                     _____________________________________________________
Solo                / 1
|------------------|------------12-----|------------10-------|-----------|
|o-7-8~-10-8-------|-7-8~-10-8----13---|-10-12-13------13-10-|----------o|
|-------------9-10-|----------------12-|---------------------|-12--9-10--|
|------------------|-------------------|---------------------|-----------|
|o-----------------|-------------------|---------------------|----------o|
|------------------|-------------------|---------------------|-----------|
 __________________________________________________________
/
|---------------------|-------------------|----------------|
|-7-8~-10-8---8-10-11-|-12-12--12--10-----|-8--------------|
|---------------------|--------------11---|----10~-9--9-10-|
|---------------------|----------------12-|----------------|
|---------------------|-------------------|----------------|
|---------------------|-------------------|----------------|

|-----------------|------------12-----|----------10-12-10----10-|--------------|
|-7-8~-10-8-------|-7-8~-10-8----13---|-10-12-13----------13----|-13-----------|
|------------9-10-|----------------12-|-------------------------|-----12p11h12-|
|-----------------|-------------------|-------------------------|--------------|
|-----------------|-------------------|-------------------------|--------------|
|-----------------|-------------------|-------------------------|--------------|

|---------------------|-------12-15--12-------|---------12-10--|----12-13-14-||
|-13--10-13--10-13-10-|----13-----------13----|-10--13---------|-13----------||
|---------------------|-12-----------------12-|----------------|-------------||
|---------------------|-----------------------|----------------|-------------||
|---------------------|-----------------------|----------------|-------------||
|---------------------|-----------------------|----------------|-------------||

|-15~-17-15--12-13-14-|-15~-17-15--12-----|---------10-12-10----10-|----12-13-15-17-12-13-14-|
|---------------------|--------------13---|-10-12-13---------13----|-13----------------------|
|---------------------|----------------12-|------------------------|-------------------------|
|---------------------|-------------------|------------------------|-------------------------|
|---------------------|-------------------|------------------------|-------------------------|
|---------------------|-------------------|------------------------|-------------------------|

|-15~-17-15--12-13-14-|-15~-17-15--15-17-18-|-19-19--19--17-14----|-15---12-13-14-|
|---------------------|---------------------|------------------15-|---------------|
|---------------------|---------------------|---------------------|---------------|
|---------------------|---------------------|---------------------|---------------|
|---------------------|---------------------|---------------------|---------------|
|---------------------|---------------------|---------------------|---------------|

|-15~-17-15--12-13-14-|-15~-17-15--12-----|---------10-12-10----10-|-------------------|
|---------------------|--------------13---|-10-12-13---------13----|-13----------------|
|---------------------|----------------12-|------------------------|----------12p11h12-|
|---------------------|-------------------|------------------------|-------------------|
|---------------------|-------------------|------------------------|-------------------|
|---------------------|-------------------|------------------------|-------------------|

|---------------------|-------12-15--12-------|---------12-10--|-------------|| D.S.
|-13--10-13--10-13-10-|----13-----------13----|-10--13---------|-13----------||  Al
|---------------------|-12-----------------12-|----------------|-------------|| Coda
|---------------------|-----------------------|----------------|-------------|| (&)
|---------------------|-----------------------|-Poco Rit…………………………-----------||
|---------------------|-----------------------|----------------|-------------||





|-------------------0---1-0-----|---------------------------------|
|---1---1---1---1---1---1-1-----|---1---1---1---------------------|
|---0-0-3---2---0-0---0-----0-0-|---0-0-3---2-------5-------------|
|---------3---2-----------------|---------3---2-1-0-4---4-5\------|
|-3-----------------------------|-3-------------------5-------0-2-|
|-------------------------------|---------------------------3-----|

|-------------------0---1-0-----|---0---0---1---1---0---1-0-------|
|---1---1---1---1---1---1-1-----|-1---------1---1---1---0-1-------|
|---0-0-3---2---0-0---0-----0-0-|-----3---2---1---0---0-----0-0---|
|---------3---2-----------------|---------------------------------|
|-3-----------------------------|---------------------------------|
|-------------------------------|---------------------------------|

|-------------------------|---------------------------------------|
|-----------------1-1-1---|---------------------------------------|
|---0---0---0---0-2-1-0-0-|---0---0---0---0-------5---------------|
|---2---2---2---2-3-3-2-0-|---2---2---2---2-2-1-0-4---4-5\3-2-0---|
|-3-------3---------------|-3-------3---------------5-------------|
|-----3-------3---------3-|-----3-------3-------------------------|

|-----------------------------------------------------0--||
|-----------------1-1-1---------4-4-5-5-5-5-----------1--||
|---0---0---0---0-2-1-0---3-2-2-------------5-5-4-4-5-0--||
|---2---2---2---2-3-3-2-0-2-3-3-4-4-5-5-5-5-5-5-5-5-5-2--||
|-3-------3-------------------------------------------3--||
|-----3-------3---------------------------------------3--||

Tap to rate this tab
# A B C D E F G H I J K L M N O P Q R S T U V W X Y Z