Song name
# A B C D E F G H I J K L M N O P Q R S T U V W X Y Z

Scott Joplin - The Entertainer tab

Tuning : E A D G B E 	Time Signature: 4/4

 |       |       |       |        |       |       |       |       
|10--12--------------------------|--------------------------------|
|--------13--10------12----------|--------------------------------|
|------------------------12------|7---9---------------------------|
|--------------------------------|--------10--7-------9-----------|
|--------------------------------|------------------------10------|
|--------------------------------|--------------------------------|

 |       |       |       |        |       |       |       |        
|--------------------------------|----------------15--------------|
|--------------------------------|----------------12--------------|
|--------------------------------|----------------12--------------|
|--------------------------------|----------------12------0---1---|
|5---7---------------------------|--------------------------------|
|--------8---5-------7---5---4---|3-------------------------------|

 |       |       |       |        |       |       |       |       
|--------------------------------|--------------------------------|
|----1-----------1---------------|1-------------------1---3---4---|
|----0-----------3---------------|2-------------------------------|
|2-----------2-----------2-------|3-------3-------2---2---3---4---|
|--------------------------------|--------------------------------|
|--------------------------------|--------------------------------|

 |       |       |       |        |       |       |       |        
|--------------------------------|--------------------------------|
|5---1---3---5-------0---3-------|1-------------------------------|
|--------------------------------|--------0-----------------------|
|5---2---3---5-------0---3-------|2-----------------------0---1---|
|--------------------------------|----------------3---------------|
|--------------------------------|--------------------------------|

 |       |       |       |        |       |       |       |       
|--------------------------------|--------------------------------|
|----1-----------1---------------|1-------------------------------|
|----0-----------3---------------|2-----------------------2-------|
|2-----------2-----------2-------|3-------3-------2-----------5---|
|--------------------------------|--------------------------------|
|--------------------------------|--------------------------------|

 |       |       |       |        |       |       |       |        
|------------0-------------------|--------------------------------|
|------------3-------3-----------|3-------3-------3---------------|
|----2---5---------------5---2---|5---------------4---------------|
|4-------------------------------|4---------------5-------0---1---|
|5-------------------------------|5---------------5---------------|
|--------------------------------|--------------------------------|

 |       |       |       |        |       |       |       |       
|--------------------------------|--------------------------------|
|----1-----------1---------------|1-------------------1---3---4---|
|----0-----------3---------------|2-------------------------------|
|2-----------2-----------2-------|3-------3-------2---2---3---4---|
|--------------------------------|--------------------------------|
|--------------------------------|--------------------------------|

 |       |       |       |        |       |       |       |        
|--------------------------------|--------------------------------|
|5---1---3---5-------0---3-------|1-------------------1---3---4---|
|--------------------------------|--------0-----------------------|
|5---2---3---5-------0---3-------|2-------------------------------|
|--------------------------------|----------------3---------------|
|--------------------------------|--------------------------------|

 |       |       |       |        |       |       |       |       
|0-----------0-------------------|0-----------0-------------------|
|----1---3-----------1---3---1---|----1---3-----------1---3---1---|
|--------------------------------|--------------------------------|
|--------------------------------|--------------------------------|
|3-----------2-------------------|1-----------0-------------------|
|--------------------------------|--------------------------------|

 |       |       |       |        |       |       |       |        
|0-----------0-------------------|--------------------------------|
|----1---3-----------0---3-------|1-------------------------------|
|--------------------------------|0-------0-----------------------|
|--------------------0-----------|2-------------------2---3---4---|
|------------2-------------------|3---------------3---------------|
|3-------------------------------|--------------------3-----------|

 |       |       |       |        |       |       |       |       
|--------------------------------|--------------------0-----------|
|--------------------------------|------------------------1-------|
|0-------2---0-------------------|0-------2---0---------------0---|
|--------------------2---3---4---|--------------------2-----------|
|3-------------------------------|3-------------------------------|
|--------------------3-----------|--------------------------------|

 |       |       |       |        |       |       |       |        
|--------------------------------|--------------------------------|
|----0---1---3-------1-----------|0-------------------------------|
|2-----------------------2---0---|0-------------------------------|
|3-----------4-------------------|--------0-----------2---3---4---|
|--------------------------------|--------------------------------|
|--------------------------------|3---------------3---3-----------|

 |       |       |       |        |       |       |       |       
|--------------------------------|--------------------------------|
|--------------------------------|--------------------------------|
|0-------2---0-------------------|0-------2---0-------0---2---3---|
|--------------------2---3---4---|--------------------------------|
|3-------------------------------|3-------------------------------|
|--------------------3-----------|--------------------3-----------|

 |       |       |       |        |       |       |       |        
|--------------------------------|--------------------------------|
|0---0-------0-------------------|--------------------------------|
|------------2-------2-----------|0-------0-------0---------------|
|----1-------------------4-------|--------3-------2---2---3---4---|
|2---------------------------0---|--------------------------------|
|--------------------------------|3-------------------3-----------|

 |       |       |       |        |       |       |       |       
|--------------------------------|--------------------0-----------|
|--------------------------------|------------------------1-------|
|0-------2---0-------------------|0-------2---0---------------0---|
|--------------------2---3---4---|--------------------2-----------|
|3-------------------------------|3-------------------------------|
|--------------------3-----------|--------------------------------|

 |       |       |       |        |       |       |       |        
|----------------0---------------|--------------------------------|
|----0---1---3-------3---1-------|3---------------3---------------|
|2---------------------------2---|5---------------4---0-------0---|
|3-------------------------------|4---------------5-------4-------|
|----------------4---------------|--------5-------5---------------|
|--------------------------------|----------------3---------------|

 |       |       |       |        |       |       |       |        
|--------------------------------|--------0---3-------0-----------|
|1-----------1-----------1-------|----1-------------------1-------|
|--------2-----------2-------2---|0-----------3---------------0---|
|--------------------------------|--------------------------------|
|3-----------3-----------3-------|--------------------------------|
|--------------------------------|--------------------------------|

 |       |       |       |        |       |       |       |       
|----------------0---------------|--------------------------------|
|--------1-----------3-----------|1---------------1---------------|
|2-------------------------------|0---------------0---------------|
|3-------------------------------|2---------------2---------------|
|--------------------------------|3---------------3---------------|
|----------------3---------------|--------3-----------------------|


Tap to rate this tab
 
# A B C D E F G H I J K L M N O P Q R S T U V W X Y Z