Scott Joplin - The Entertainer tab

        
The Entertainer - By Scott Joplin 

Piano Transcription      

I made this transcription because I love ragtime and I had a lot of 
free time. This is possibly the most complete transcription of the 
entertainer so far based upon the easy piano version of The Entertainer.

Transcribed by Omar Acevedo

                                                                      -OAL

 |-10-12-8-5-7-3-------------------------------3-|
 |---------------------------------------------3-|
 |----------------7-9-5-2-4-0------------------4-|
 |-----------------------------------------------|
 |-----------------------------5-7-3-0-2-0-------|
 |-----------------------------------------4-3-3-|
                    
                    /Optional\
 |-------8---8---8-||---------|
 |-3-4-5---5-5-5---||---------|
 |-----------------||----5----|
 |-----------5-----||-3--7--2-|
 |-----3-----------||---------|
 |-----------------||---------|
 
  
 |-8-10-11-12-8-10-12--7-10-8-|
 |----------------------------|
 |-----------------12---------|
 |--------------------------5-|
 |---------10-----------------|
 |----------------------------|

 |-------8---8---8-----------|
 |-3-4-5---5-5-5-------------|
 |---------------------------|
 |-----------5----------5----|
 |-----3-------------3--7--2-|
 |---------------------------|

 |-5-3-2-5-8-12-10-8-5-10-|
 |------------------------|
 |------------------------|
 |-----5----------------9-|
 |---------------------10-|
 |-----------10-----------|
                        
                        /Optional\
 |----------8---8---8-||---------|
 |----3-4-5---5-5-5---||---------|
 |--------------------||----7----|
 |--------------5-----||-3--5--2-|
 |--0-2---3-----------||---------|
 |3-------------------||---------|

 |-8-10-11-12-8-10-12--7-10-8-|
 |----------------------------|
 |-----------------12---------|
 |--------------------------5-|
 |---------10-----------------|
 |----------------------------|

 |-8-10-12-8-10-12-8-10-8-12-8-10-12-8-10-12-8-10-12-7-10-8-----||
 |-------7-------8----------------------------------------------||
 |-------8-------9--------10------10--------------12------9-----||
 |------10-------8--------10------10---------------------10-----||
 |------------------------12------11------10----------------10--||
 |-------------------------------------------------------------8||

     About the optional part I included it because in the piano version I 
that part was there but only included in the bass clef and many people just 
like to pass over by holding the last note before it continuing to the next 
part which still sounds OK. 

Hope you enjoy it!
Tap to rate this tab
 
# A B C D E F G H I J K L M N O P Q R S T U V W X Y Z