Song name
# A B C D E F G H I J K L M N O P Q R S T U V W X Y Z

Scott Joplin - The Entertainer tab

The Entertainer - Scott Joplin (1868-1917)
1st version - by David M. Garrett, solo, in C
2nd version - by Edwin Tan, duet, in C
******************************************************************************

The Entertainer by Scott Joplin

TablEdited by David M. Garrett

This is an arrangement for 1 guitar that I did several years ago.
I used several sources that I would gladly site if I could remember
them.

Tuning: E A D G B E   -   Time Signature: 4/4

 |       |       |       |        |       |       |       |       
|10--12--------------------------|--------------------------------|
|--------13--10------12----------|--------------------------------|
|------------------------12------|7---9---------------------------|
|--------------------------------|--------10--7-------9-----------|
|--------------------------------|------------------------10------|
|--------------------------------|--------------------------------|

 |       |       |       |        |       |       |       |        
|--------------------------------|----------------15--------------|
|--------------------------------|----------------12--------------|
|--------------------------------|----------------12--------------|
|--------------------------------|----------------12------0---1---|
|5---7---------------------------|--------------------------------|
|--------8---5-------7---5---4---|3-------------------------------|

 |       |       |       |        |       |       |       |       
|--------------------------------|--------------------------------|
|----1-----------1---------------|1-------------------1---3---4---|
|----0-----------3---------------|2-------------------------------|
|2-----------2-----------2-------|3-------3-------2---2---3---4---|
|--------------------------------|--------------------------------|
|--------------------------------|--------------------------------|

 |       |       |       |        |       |       |       |        
|--------------------------------|--------------------------------|
|5---1---3---5-------0---3-------|1-------------------------------|
|--------------------------------|--------0-----------------------|
|5---2---3---5-------0---3-------|2-----------------------0---1---|
|--------------------------------|----------------3---------------|
|--------------------------------|--------------------------------|

 |       |       |       |        |       |       |       |       
|--------------------------------|--------------------------------|
|----1-----------1---------------|1-------------------------------|
|----0-----------3---------------|2-----------------------2-------|
|2-----------2-----------2-------|3-------3-------2-----------5---|
|--------------------------------|--------------------------------|
|--------------------------------|--------------------------------|

 |       |       |       |        |       |       |       |        
|------------0-------------------|--------------------------------|
|------------3-------3-----------|3-------3-------3---------------|
|----2---5---------------5---2---|5---------------4---------------|
|4-------------------------------|4---------------5-------0---1---|
|5-------------------------------|5---------------5---------------|
|--------------------------------|--------------------------------|

 |       |       |       |        |       |       |       |       
|--------------------------------|--------------------------------|
|----1-----------1---------------|1-------------------1---3---4---|
|----0-----------3---------------|2-------------------------------|
|2-----------2-----------2-------|3-------3-------2---2---3---4---|
|--------------------------------|--------------------------------|
|--------------------------------|--------------------------------|

 |       |       |       |        |       |       |       |        
|--------------------------------|--------------------------------|
|5---1---3---5-------0---3-------|1-------------------1---3---4---|
|--------------------------------|--------0-----------------------|
|5---2---3---5-------0---3-------|2-------------------------------|
|--------------------------------|----------------3---------------|
|--------------------------------|--------------------------------|

 |       |       |       |        |       |       |       |       
|0-----------0-------------------|0-----------0-------------------|
|----1---3-----------1---3---1---|----1---3-----------1---3---1---|
|--------------------------------|--------------------------------|
|--------------------------------|--------------------------------|
|3-----------2-------------------|1-----------0-------------------|
|--------------------------------|--------------------------------|

 |       |       |       |        |       |       |       |        
|0-----------0-------------------|--------------------------------|
|----1---3-----------0---3-------|1-------------------------------|
|--------------------------------|0-------0-----------------------|
|--------------------0-----------|2-------------------2---3---4---|
|------------2-------------------|3---------------3---------------|
|3-------------------------------|--------------------3-----------|

 |       |       |       |        |       |       |       |       
|--------------------------------|--------------------0-----------|
|--------------------------------|------------------------1-------|
|0-------2---0-------------------|0-------2---0---------------0---|
|--------------------2---3---4---|--------------------2-----------|
|3-------------------------------|3-------------------------------|
|--------------------3-----------|--------------------------------|

 |       |       |       |        |       |       |       |        
|--------------------------------|--------------------------------|
|----0---1---3-------1-----------|0-------------------------------|
|2-----------------------2---0---|0-------------------------------|
|3-----------4-------------------|--------0-----------2---3---4---|
|--------------------------------|--------------------------------|
|--------------------------------|3---------------3---3-----------|

 |       |       |       |        |       |       |       |       
|--------------------------------|--------------------------------|
|--------------------------------|--------------------------------|
|0-------2---0-------------------|0-------2---0-------0---2---3---|
|--------------------2---3---4---|--------------------------------|
|3-------------------------------|3-------------------------------|
|--------------------3-----------|--------------------3-----------|

 |       |       |       |        |       |       |       |        
|--------------------------------|--------------------------------|
|0---0-------0-------------------|--------------------------------|
|------------2-------2-----------|0-------0-------0---------------|
|----1-------------------4-------|--------3-------2---2---3---4---|
|2---------------------------0---|--------------------------------|
|--------------------------------|3-------------------3-----------|

 |       |       |       |        |       |       |       |       
|--------------------------------|--------------------0-----------|
|--------------------------------|------------------------1-------|
|0-------2---0-------------------|0-------2---0---------------0---|
|--------------------2---3---4---|--------------------2-----------|
|3-------------------------------|3-------------------------------|
|--------------------3-----------|--------------------------------|

 |       |       |       |        |       |       |       |        
|----------------0---------------|--------------------------------|
|----0---1---3-------3---1-------|3---------------3---------------|
|2---------------------------2---|5---------------4---0-------0---|
|3-------------------------------|4---------------5-------4-------|
|----------------4---------------|--------5-------5---------------|
|--------------------------------|----------------3---------------|

 |       |       |       |        |       |       |       |        
|--------------------------------|--------0---3-------0-----------|
|1-----------1-----------1-------|----1-------------------1-------|
|--------2-----------2-------2---|0-----------3---------------0---|
|--------------------------------|--------------------------------|
|3-----------3-----------3-------|--------------------------------|
|--------------------------------|--------------------------------|

 |       |       |       |        |       |       |       |       
|----------------0---------------|--------------------------------|
|--------1-----------3-----------|1---------------1---------------|
|2-------------------------------|0---------------0---------------|
|3-------------------------------|2---------------2---------------|
|--------------------------------|3---------------3---------------|
|----------------3---------------|--------3-----------------------|


Created with TablEdit http://www.tabledit.com/

******************************************************************************
******************************************************************************

#----------------------------------PLEASE NOTE--------------------------------#
#This file is the author's own work and represents their interpretation of the#
#song. You may only use this file for private study, scholarship, or research.#
#-----------------------------------------------------------------------------#

Date: Fri, 20 Mar 1998 10:55:50 -0800
From: Edwin Tan 
Subject: TAB: the entertainer by scott joplin

TAB FOR: The Entertainer
Written by : Scott Joplin
Transcribed by Edwin Tan (stoned@pacific.net.sg)

This is a direct transcription I made from the piano so there will be 2 guitar
parts as played using the left and right hands on the piano. Guitar 1 will be
played as the right hand side while guitar 2 will be played as the left hand
side. As for the timing, try to catch it yourself and if u face any problems,
feel free to contact me and I'll try my best to help.. Bye !

Enjoy ! 

Guitar 1

4/4 ( Lively )
e-|-------8---8---8-|-8-10\11-12-8-10-12----10-8-|
B-|-----------------|--------------------12------|
G-|-7h8h9---9---9---|----------------------------|
D-|-----------------|----------------------------|
A-|-----------------|----------------------------|
E-|-----------------|----------------------------|

e-|-------8---8---8-|-----------8-12-10-8--------|
B-|-----------------|-10-8p7-10-----------12-----|
G-|-7h8h9---9---9---|----------------------------|
D-|-----------------|----------------------------|
A-|-----------------|----------------------------|
E-|-----------------|----------------------------|

e-|-------8---8---8-|-8-10\11-12-8-10-12----10-8-|
B-|-----------------|--------------------12------|
G-|-7h8h9---9---9---|----------------------------|
D-|-----------------|----------------------------|
A-|-----------------|----------------------------|
E-|-----------------|----------------------------|

e-|-8-10\11-12-8-10-12-8-10-8-12-8-10-12-8-10-8-12-8-10-12----10-8--|
B-|--------------------------------------------------------12-------|
G-|-----------------------------------------------------------------|
D-|-----------------------------------------------------------------|
A-|-----------------------------------------------------------------|
E-|-----------------------------------------------------------------|

e-|-----------------------------12----------------10----------------|
B-|------7h8-10p8------7h8-10p8----13----10p12-13----13-10----------|
G-|-9h10----------9h10----------------12-------------------12-------|
D-|-----------------------------------------------------------------|
A-|-----------------------------------------------------------------|
E-|-----------------------------------------------------------------|

e-|-----------------------------------------------------------------|
B-|------7h8-10p8------7h8-10p8-8h10-11-12-12-12-10------8----------|
G-|-9h10----------9h10------------------------------11\7---10-9-----|
D-|-----------------------------------------------------------------|
A-|-----------------------------------------------------------------|
E-|-----------------------------------------------------------------|

e-|-----------------------------12----------------10-12-10----10----|
B-|------7h8-10p8------7h8-10p8----13----10p12-13----------13----13-|
G-|-9h10----------9h10----------------12----------------------------|
D-|-----------------------------------------------------------------|
A-|-----------------------------------------------------------------|
E-|-----------------------------------------------------------------|

e-|----------------------------------12-15-12-------------10-10----||
B-|----------13-10-13-10-13-10----13----------13----10-13-------13-||
G-|-12p11h12-------------------12----------------12----------------||
D-|----------------------------------------------------------------||
A-|----------------------------------------------------------------||
E-|----------------------------------------------------------------||


Guitar 2

e-|-------------------0---1-0-----|---------------------------------|
B-|---1---1---1---1---1---1-1-----|---1---1---1---------------------|
G-|---0-0-3---2---0-0---0-----0-0-|---0-0-3---2-------5-------------|
D-|---------3---2-----------------|---------3---2-1-0-4---4-5\------|
A-|-3-----------------------------|-3-------------------5-------0-2-|
E-|-------------------------------|---------------------------3-----|

e-|-------------------0---1-0-----|---0---0---1---1---0---1-0-------|
B-|---1---1---1---1---1---1-1-----|-1---------1---1---1---0-1-------|
G-|---0-0-3---2---0-0---0-----0-0-|-----3---2---1---0---0-----0-0---|
D-|---------3---2-----------------|---------------------------------|
A-|-3-----------------------------|---------------------------------|
E-|-------------------------------|---------------------------------|

e-|-------------------------|---------------------------------------|
B-|-----------------1-1-1---|---------------------------------------|
G-|---0---0---0---0-2-1-0-0-|---0---0---0---0-------5---------------|
D-|---2---2---2---2-3-3-2-0-|---2---2---2---2-2-1-0-4---4-5\3-2-0---|
A-|-3-------3---------------|-3-------3---------------5-------------|
E-|-----3-------3---------3-|-----3-------3-------------------------|

e-|-----------------------------------------------------0--||
B-|-----------------1-1-1---------4-4-5-5-5-5-----------1--||
G-|---0---0---0---0-2-1-0---3-2-2-------------5-5-4-4-5-0--||
D-|---2---2---2---2-3-3-2-0-2-3-3-4-4-5-5-5-5-5-5-5-5-5-2--||
A-|-3-------3-------------------------------------------3--||
E-|-----3-------3---------------------------------------3--||

--=====================_890448950==_--
Tap to rate this tab
 
# A B C D E F G H I J K L M N O P Q R S T U V W X Y Z