Song name
# A B C D E F G H I J K L M N O P Q R S T U V W X Y Z

Scott Kelly - The Sun Is Dreaming In The Soul tab

The Sun is Dreaming in the Soul - Scott Kelly
Drop D tuning - DADGbe
e--------------------------------------------------]
B--------------------------------------------------]
G--------------------------------------------------]
D-5----7---8-7-5---5---\3---------3----------3-3/5-]x2
A-5----5---5---5---5---\3-----3h5--------3h5---3/5-]
D-5--5---5-5-----5---5-\3---3-------3--3-------3/5-]

e----------------------------------------------------------------------------|
B----------------------------------------------------------------------------|
G----------------------------------------------------------------------------|
D-5----7---8-7-5---5---\3---------3---------\1------0-1-0---1/5----------5\1-|
A-5----5---5---5---5---\3-----3h5------3h5-3\1--0-1-------1-1/5----5---5-5\1-|
D-5--5---5-5-----5---5-\3---3------3-3------\1--------------1/5--5---5---5\1-|

e------------------------------]
B------------------------------]
G------------------------------]
D---------5\1------0-1-0---1/5-]
A---5---5-5\1--0-1-------1-1/5-]
D-5---5---5\1--------------1/5-]


            Wisdom,            In the Echoes
            Roses,             Burn in Starlight
e---------|--------------------------------------------------------|
B---------|--------------------------------------------------------|
G---------|--------------------------------------------------------|
D---------|-------5----7---8-7-5---5---\3---------3----------3-3/5-|
A---5---5-|-------5----5---5---5---5---\3-----3h5--------3h5---3/5-|
D-5---5---|-------5--5---5-5-----5---5-\3---3-------3--3-------3/5-|

 Reaching,             For the Knowledge                       Return in soil
e----------------------------------------------------------------------------|
B----------------------------------------------------------------------------|
G----------------------------------------------------------------------------|
D-5----7---8-7-5---5---\3---------3---------\1------0-1-0---1/5----------5\1-|
A-5----5---5---5---5---\3-----3h5------3h5-3\1--0-1-------1-1/5----5---5-5\1-|
D-5--5---5-5-----5---5-\3---3------3-3------\1--------------1/5--5---5---5\1-|


e------------------------------]
B------------------------------]
G------------------------------]
D---------5\1------0-1-0---1/5-]
A---5---5-5\1--0-1-------1-1/5-]
D-5---5---5\1--------------1/5-]

            Blood,               In the Eyes
            Clearing,             A Vision
e---------|--------------------------------------------------------|
B---------|--------------------------------------------------------|
G---------|--------------------------------------------------------|
D---------|-------5----7---8-7-5---5---\3---------3----------3-3/5-|
A---5---5-|-------5----5---5---5---5---\3-----3h5--------3h5---3/5-|
D-5---5---|-------5--5---5-5-----5---5-\3---3-------3--3-------3/5-|

 Violence,             In a Whisper                       Return in soil
e----------------------------------------------------------------------------|
B----------------------------------------------------------------------------|
G----------------------------------------------------------------------------|
D-5----7---8-7-5---5---\3---------3---------\1------0-1-0---1/5----------5\1-|
A-5----5---5---5---5---\3-----3h5------3h5-3\1--0-1-------1-1/5----5---5-5\1-|
D-5--5---5-5-----5---5-\3---3------3-3------\1--------------1/5--5---5---5\1-|

e------------------------------]
B------------------------------]
G------------------------------]
D---------5\1------0-1-0---1/5-]
A---5---5-5\1--0-1-------1-1/5-]
D-5---5---5\1--------------1/5-]

  He's watching In the night    The Shadows Bring us through the night
e--------------------------------------------------------------------------|
B--------------------------------------------------------------------------|
G--------------------------------------------------------------------------|
D--------------1--/3--/5---------------------1--/3--/5---------------------|
A---5---5------1--/3--/5----------5---5------1--/3--/5---------------------|
D-5---5--------1--/3--/5--------5---5--------1--/3--/5---------------------|

    The sun,  is dreaming in the soul
e--------------------------------------|
B--------------------------------------|
G--------------------------------------|
D-------------------1--/3--/5----------|
A---5---5-----------1--/3--/5----------|
D-5---5-------------1--/3--/5----------|
Tap to rate this tab
# A B C D E F G H I J K L M N O P Q R S T U V W X Y Z