Song name
# A B C D E F G H I J K L M N O P Q R S T U V W X Y Z

Scott Matthews - Passing Stranger tab

-------------------------------------------------------------------------------
		     PASSING STRANGER (INTRO) - Scott Matthews
-------------------------------------------------------------------------------
Tabbed by: 100%guitarmad/Eddie Adams
Email: edmedmoped@yahoo.co.uk

Tuning: Standard - capo 1st fret.

Just thought I'd tab this out for everyone because it's not up yet and is an important 
of the song ;). The tab is relative to the capo (fret 4 in the tab is technically fret 5).

e|------------------|
B|-/3---------------|
G|-/4----2----------|
D|---------5-2-0----|
A|------------------|
E|------------------|

e|----10---|-----10-----------------------------------------|
B|-/12-----|--/12----/13-11----------12--------P------------|
G|---------|-----------------12-10-12--12----12-10-/12-/12--|
D|---------|------------------------------------------------|
A|---------|------------------------------------------------|
E|---------|------------------------------------------------|
Tap to rate this tab
# A B C D E F G H I J K L M N O P Q R S T U V W X Y Z